» » »

Mad Caddies, Drinking For Tabs (ver.2)

Artists:  A B C D E F G H I J K L M N O P Q R S T U V W X Y Z # 

Drinking For Tabs (ver.2)

Mad Caddies Tabs
 Rating:
4/5 (4 votes)
Drinking For lessons Tabs too difficult? Try these video lessons and learn fast
1
                ------------------------------------------------------
Drinking for 11 – Mad Caddies
------------------------------------------------------
I think this is pretty accurate...it is my first tab though so make corrections if u want to.


Acoustic Intro 
Play each chord 8x
E|-1-1-1-1-1-1-1-1--5-5-5-5-5-5-5-5--6-6-6-6-6-6-6-6--1-1-1-1-1-1-1-1--|
B|-1-1-1-1-1-1-1-1--5-5-5-5-5-5-5-5--6-6-6-6-6-6-6-6--1-1-1-1-1-1-1-1--|
G|-2-2-2-2-2-2-2-2--6-6-6-6-6-6-6-6--7-7-7-7-7-7-7-7--2-2-2-2-2-2-2-2--|(x2)
D|-3-3-3-3-3-3-3-3--7-7-7-7-7-7-7-7--8-8-8-8-8-8-8-8--3-3-3-3-3-3-3-3--|
A|-3-3-3-3-3-3-3-3--7-7-7-7-7-7-7-7--8-8-8-8-8-8-8-8--3-3-3-3-3-3-3-3--|
E|-1-1-1-1-1-1-1-1--5-5-5-5-5-5-5-5--6-6-6-6-6-6-6-6--1-1-1-1-1-1-1-1--|
Verse 
  ............................pm.......................................
E|---------------------------------------------------------------------|
B|-1-1-1-1-1-1-1-1--5-5-5-5-5-5-5-5--6-6-6-6-6-6-6-6--6-6-6-6-6-6-6-6--|
G|-2-2-2-2-2-2-2-2--6-6-6-6-6-6-6-6--7-7-7-7-7-7-7-7--7-7-7-7-7-7-7-7--|(x3)
D|-3-3-3-3-3-3-3-3--7-7-7-7-7-7-7-7--8-8-8-8-8-8-8-8--8-8-8-8-8-8-8-8--|
A|---------------------------------------------------------------------|
E|---------------------------------------------------------------------|
Verse end
  ............................pm.......................................
E|---------------------------------------------------------------------|
B|-1-1-1-1-1-1-1-1--5-5-5-5-5-5-5-5--6-6-6-6-6-6-6-6--6-6-6-6-6-6-6-6--|
G|-2-2-2-2-2-2-2-2--6-6-6-6-6-6-6-6--7-7-7-7-7-7-7-7--7-7-7-7-7-7-7-7--|
D|-3-3-3-3-3-3-3-3--7-7-7-7-7-7-7-7--8-8-8-8-8-8-8-8--8-8-8-8-8-8-8-8--|
A|---------------------------------------------------------------------|
E|---------------------------------------------------------------------|

E|6-6-6-6-5-1-5--|
B|6-6-6-6-5-1-5--|
D|7-7-7-7-6-2-5--|
G|8-8-8-8-7-3-5--|
A|8-8-8-8-7-3-3--|
E|6-6-6-6-5-1----|

Chorus
E|------------------------------------------------------|
B|-1-1-1-1-1-1-1-1--5-5-5-5-5-5-5-5--7-7-7-7-7-7-7-7--*-|
G|-2-2-2-2-2-2-2-2--5-5-5-5-5-5-5-5--7-7-7-7-7-7-7-7--7-|
D|-3-3-3-3-3-3-3-3--5-5-5-5-5-5-5-5--7-7-7-7-7-7-7-7--8-|
A|----------------------------------------------------8-|
E|------------------------------------------------------|

E|-----------------------------------5--6--3--|
B|-1-1-1-1-1-1-1-1--5-5-5-5-5-5-5-5--7--6--3--|
G|-2-2-2-2-2-2-2-2--5-5-5-5-5-5-5-5--7--7--4--|
D|-2-2-2-2-2-2-2-2--5-5-5-5-5-5-5-5--7--7--4--|
A|-----------------------------------5--8--5--|
E|--------------------------------------6--3--|

E|-1-1-1-1-1-1-1-1--5-5-5-5-5-5-5-5--6-6-6-6-6-6-6-6--1-1-1-1-1-1-1-1--|
B|-1-1-1-1-1-1-1-1--5-5-5-5-5-5-5-5--6-6-6-6-6-6-6-6--1-1-1-1-1-1-1-1--|
G|-2-2-2-2-2-2-2-2--6-6-6-6-6-6-6-6--7-7-7-7-7-7-7-7--2-2-2-2-2-2-2-2--|
D|-3-3-3-3-3-3-3-3--7-7-7-7-7-7-7-7--8-8-8-8-8-8-8-8--3-3-3-3-3-3-3-3--|
A|-3-3-3-3-3-3-3-3--7-7-7-7-7-7-7-7--8-8-8-8-8-8-8-8--3-3-3-3-3-3-3-3--|
E|-1-1-1-1-1-1-1-1--5-5-5-5-5-5-5-5--6-6-6-6-6-6-6-6--1-1-1-1-1-1-1-1--|
Verse 
  ............................pm.......................................
E|---------------------------------------------------------------------|
B|-1-1-1-1-1-1-1-1--5-5-5-5-5-5-5-5--6-6-6-6-6-6-6-6--6-6-6-6-6-6-6-6--|
G|-2-2-2-2-2-2-2-2--6-6-6-6-6-6-6-6--7-7-7-7-7-7-7-7--7-7-7-7-7-7-7-7--|
D|-3-3-3-3-3-3-3-3--7-7-7-7-7-7-7-7--8-8-8-8-8-8-8-8--8-8-8-8-8-8-8-8--|
A|---------------------------------------------------------------------|
E|---------------------------------------------------------------------|
Verse end
  ............................pm.......................................
E|---------------------------------------------------------------------|
B|-1-1-1-1-1-1-1-1--5-5-5-5-5-5-5-5--6-6-6-6-6-6-6-6--6-6-6-6-6-6-6-6--|
G|-2-2-2-2-2-2-2-2--6-6-6-6-6-6-6-6--7-7-7-7-7-7-7-7--7-7-7-7-7-7-7-7--|
D|-3-3-3-3-3-3-3-3--7-7-7-7-7-7-7-7--8-8-8-8-8-8-8-8--8-8-8-8-8-8-8-8--|
A|---------------------------------------------------------------------|
E|---------------------------------------------------------------------|

E|6-6-6-6-5-1-5--|
B|6-6-6-6-5-1-5--|
D|7-7-7-7-6-2-5--|
G|8-8-8-8-7-3-5--|
A|8-8-8-8-7-3-3--|
E|6-6-6-6-5-1----|

E|-1-1-1-1-1-1-1-1--5-5-5-5-5-5-5-5--6-6-6-6-6-6-6-6--1-1-1-1-1-1-1-1--|
B|-1-1-1-1-1-1-1-1--5-5-5-5-5-5-5-5--6-6-6-6-6-6-6-6--1-1-1-1-1-1-1-1--|
G|-2-2-2-2-2-2-2-2--6-6-6-6-6-6-6-6--7-7-7-7-7-7-7-7--2-2-2-2-2-2-2-2--|(x3 last time acoustic)
D|-3-3-3-3-3-3-3-3--7-7-7-7-7-7-7-7--8-8-8-8-8-8-8-8--3-3-3-3-3-3-3-3--|
A|-3-3-3-3-3-3-3-3--7-7-7-7-7-7-7-7--8-8-8-8-8-8-8-8--3-3-3-3-3-3-3-3--|
E|-1-1-1-1-1-1-1-1--5-5-5-5-5-5-5-5--6-6-6-6-6-6-6-6--1-1-1-1-1-1-1-1--|
            
Submit corrections

comments powered by Disqus
↑ Back to top | Mad Caddies Tabs for Drinking For. Lyrics for acoustic guitar and electric guitar. 1 Tablatures and chords are parodies/interpretations of the original songs. You may use it for private study, scholarship, research or language learning purposes only