» » »

Madball, Pride Tabs (ver.3)

Artists:  A B C D E F G H I J K L M N O P Q R S T U V W X Y Z # 

Pride Tabs (ver.3)

Madball Tabs
 Rating:
4/5 (4 votes)
Pride lessons Tabs too difficult? Try these video lessons and learn fast
1
                Intro
|-----------------|
|-----------------|
|-----------------|
|-----------------|
|22222222222222222|
|00000000000000000|

Chorus
|--------------------------------------------------------------|
|--------------------------------------------------------------|
|--------------------------------------------------------------|
|---------7777777-101010101010-9999999-7777-999---------------7|
|22222222-5555555-8-8-8-8-8-8--7777777-5555-777--99999-10-9-7-5|
|00000000----------------------------------------77777-8--7-5--|

Verse
|-------------------------||--------|
|-------------------------||--------|
|-------------------------||--------|
|-------------------------||-------7|
|222-22222-22222-22222-333||10-9-7-5|
|000-00000-00000-00000-111||8--7-5--|

Bridge
|-------------------------------------------------------------------|
|-------------------------------------------------------------------|
|-------------------------------------------------------------------|
|------------------------------------------------------------------7|
|777777-8-777777-5-777777-8-101010-777777-8-777777-5-777777-10-9-7-5|
|555555-6-555555-3-555555-6-8-8-8--555555-6-555555-3-555555-8--7-5--|

Jonny toxik
            
Submit corrections

comments powered by Disqus
↑ Back to top | Madball Tabs for Pride. Lyrics for acoustic guitar and electric guitar. 1 Tablatures and chords are parodies/interpretations of the original songs. You may use it for private study, scholarship, research or language learning purposes only