>
 >
This Is The End 2

This Is The End 2 Guitar Tabs

Machine Head - This Is The End 2 chords, tabs, tablatures, lyrics

Guitar lessons | Add/correct | Request | Top 50 tabs Artists:  A B C D E F G H I J K L M N O P Q R S T U V W X Y Z 0-9

This Is The End 2 Guitar Tabs – Machine Head

CD, Sheet music, Poster

Do you like This Is The End 2? Share with your friends now
TabsTabs v2Tabs v3
Clean
---------------------------------------------------------------------------|
-13--13--13-12-10---12-12-------------------------12-8---------------------|
-----------------12-------11-11---11h12-9-11h12-9------10h11-8-10h11-8-----|
---10--10-------------9--9--9--9----------------------9-------9------------|
---------------------------------7-------7---------------------------------|
---------------------------------------------------------------------------|

---------------------------------------------------------------------------|
-12h13-12---------------------------------13-12-----------------12-8-------|
-----------11h12-9--11h12-9-----------9-8-------11h12-9-11h12-9------------|
---------10-------10--------7-9-10-7-9---9---------------------------------|
-----------------------------------------------7-------7-------------------|
---------------------------------------------------------------------------|

---------------------------------------------------------------------------|
------------------12h13-12---------------------------------13-12-----------|
--10h11-8-10h11-8-----------11h12-9--11h12-9-----------9-8-----------------|
-9-------9----------------10-------10--------7-9-10-7-9---9-----repeat-----|
---------------------------------------------------------------------once--|
---------------------------------------------------------------------------|

Ending to Clean Riff
---------------------------------------------------------------------------|
-13--13--13-12-10---12--12-------------------------------------------------|
-----------------12--------10-10------D-R-U-M---S-O-L-O--------------------|
---10--10-------------9---9--9---------------------------------------------|
---------------------------------------------------------------------------|
---------------------------------------------------------------------------|

Riff 1 Chorus Riff
---------------------------------------------------------------------------|
----------------------------------------------12-12-12-12-8-8-8-8----------|
---12-12-12-12-9-9-9-9---12-12-12-12-9-9-9-9-------------------------------|
---------------------------------------------------------------------------|
-7---------------------7---------------------------------------------------|
---------------------------------------------------------------------------|

---------------------------------------------------------------------------|
------------------------------------------13-13-13-13-12-12-12-12----------|
---11-11-11-11-8-8-8-8---11-11-11-8-8-8-8----------------------------------|
-9---------------------9---------------------------------------------------|
---------------------------------------------------------------------------|
---------------------------------------------------------------------------|

---------------------------------------------------------------------------|
-----------------------------------------------8-8-8-8-10-10-10-10---------|
----12-12-12-12-9-9-9-9----12-12-12-12-9-9-9-9-----------------------------|
-10---------------------10-------------------------------------------------|
---------------------------------------------------------------------------|
---------------------------------------------------------------------------|

---------------------------------------------------------------------------|
-13-13-13-13-10-10-10-10-12-12-12-12-17-17-17-17-16-16-16-16-12-12-12-12---|
---------------------------------------------------------------------------|
---------------------------------------------------------------------------|
---------------------------------------------------------------------------|
---------------------------------------------------------------------------|

-20-20-20-20-19-19-19-19---------------------------------------------------|
---------------------------------------------------------------------------|
---------------------------------------------------------------------------|
-----------------------------repeat once-----------------------------------|
---------------------------------------------------------------------------|
---------------------------------------------------------------------------|

Riff 2 Verse Riff
---------------------------------------------------------------------------|
---------------------------------------------------------------------------|
-----------------------------------------------------------------12-11-7-9-|
----------------10-9---------------------------------10-9------------------|
---10-9---5-7---------10-12--222-222----10-9---5-7---------10-12-----------|
-0------0-----0-----0--------000-000--0------0-----0-----0-----------------|
 *      *     *     *        *** ***  *      *     *     *
---------------------------------------------------------------------------|
---------------------------------------------------------------------------|
---------------------------------------------------------------------------|
----------------10-9-------------------------------------------------------|
---10-9---5-7---------10-12--10-9-5-7--------------------------------------|
-0------0-----0-----0-----------------7-777-7-777-777-7-777-7-777-777------|
 *      *     *     *                 * *** * *** *** * *** * *** ***

---------------------------------------------------------------------------|
---------------------------------------------------------------------------|
-----------------------------------------------------------------12-11-7-9-|
----------------10-9---------------------------------10-9------------------|
---10-9---5-7---------10-12--222-222----10-9---5-7---------10-12-----------|
-0------0-----0-----0--------000-000--0------0-----0-----0-----------------|
 *      *     *     *        *** ***  *      *     *     *

---------------------------------------------------------------------------|
---------------------------------------------------------------------------|
---------------------------------------------------------------------------|
----------------10-9-------------------------------------------------------|
---10-9---5-7---------10-12--10-9-5-7--------------------------------------|
-0------0-----0-----0-----------------7-777-7-777-777-7-777-7-777-777------|
 *      *     *     *                 * *** * *** *** * *** * *** ***


---------------------------------------------------------------------------|
---------------------------------------------------------------------------|
---------------------------------------------------------------------------|
---------------------------------------------------------------------------|
---------------------------------------------------------------------------|
-7-777-7-777-777-7-777-7-777-777-------------------------------------------|
 * *** * *** *** * *** * *** ***

Repeat Riff 1 & 2
---------------------------------------------------------------------------|
---------------------------------------------------------------------------|
--5------5--5-----5----------5------5--5---------12--11--9-----------------|
----2--2--2--2--2--2-----------2--2--2--2--2-/-9---9---9--9----------------|
---------------------------------------------------------------------------|
---------------------0-0-0-0-----------------------------------------------|
                     * * * *
---------------------------------------------------------------------------|
----------------------------5-8p0-7p0-10p0-8p0-12p0-10p0-12-13-------------|
--5------5--5-----5--------------------------------------------------------|
----2--2--2--2--2--2-------------------------------------------------------|
---------------------------------------------------------------------------|
---------------------0-0-0-0-----------------------------------------------|
                     * * * *

---------------------------------------------------------------------------|
--13-----------------------------------------------------------------------|
----9----5--5-----5----------5------5--5---------12--11--9-----------------|
-------2--2--2--2--2-----------2--2--2--2--2-/-9---9---9--9----------------|
---------------------------------------------------------------------------|
---------------------0-0-0-0-----------------------------------------------|
                     * * * *

---------------------------------------------------------------------------|
----------------------------5-8p0-7p0-10p0-8p0-12p0-10p0-12-13-------------|
--5------5--5-----5--------------------------------------------------------|
----2--2--2--2--2--2-------------------------------------------------------|
----------------------------------------------------------repeat once------|
---------------------0-0-0-0-----------------------------------------------|
                     * * * *


---------------------------------------------------------------------------|
---------------------------------------------------------------------------|
---------------------------------------------------------------------------|
-5--5---5--4--2---------------------D-R-U-M-S------------------------------|
-3--3---3--2--0--5-/-9-----------------------------------------------------|
-----------------3-/-7-----------------------------------------------------|

Slowed Tempo
-----------------------------12-H.----------------------------------12-H.--|
--------------------------------12-H.---------------------------------12-H.|
---------------------------------------------------------------------------|
----------------10-9----------------------------------10-9-----------------|
---10-9---5-7----------10-12-------------10-9---5-7----------10-12---------|
-0------0-----0------0-------0----------0------0-----0------0------0-------|
        *     *      *       *                 *     *      *      *
-----------------------------------------------------15--------------------|
-----------------------------------------------------17b---hold------------|
---------------------------------------------------------------------------|
----------------10-9-------------------------------------------------------|
---10-9---5-7----------10-12---10-9-7---10-9---5-7-------------------------|
-8b-----0-----0------0-------0---------------0-----0-----------------------|
        *     *      *       *               *     *

-----------------------------12-H.----------------------------------12-H.--|
--------------------------------12-H.---------------------------------12-H.|
---------------------------------------------------------------------------|
----------------10-9----------------------------------10-9-----------------|
---10-9---5-7----------10-12-------------10-9---5-7----------10-12---------|
-0------0-----0------0-------0----------0------0-----0------0------0-------|
        *     *      *       *                 *     *      *      *
-----------------------------------------------------15--------------------|
-----------------------------------------------------17b---hold------------|
---------------------------------------------------------------------------|
----------------10-9-------------------------------------------------------|
---10-9---5-7----------10-12---10-9-7---10-9---5-7-------------------------|
-8b-----0-----0------0-------0---------------0-----0-----------------------|
        *     *      *       *               *     *

-----------------------------12-H.----------------------------------12-H.--|
--------------------------------12-H.---------------------------------12-H.|
---------------------------------------------------------------------------|
----------------10-9----------------------------------10-9-----------------|
---10-9---5-7----------10-12-------------10-9---5-7----------10-12---------|
-0------0-----0------0-------0----------0------0-----0------0------0-------|
        *     *      *       *                 *     *      *      *
-----------------------------------------------------15--------------------|
-----------------------------------------------------17b---hold------------|
---------------------------------------------------------not as long tho---|
----------------10-9-------------------------------------------------------|
---10-9---5-7----------10-12---10-9-7---10-9---5-7-------------------------|
-8b-----0-----0------0-------0---------------0-----0-----------------------|
        *     *      *       *               *     *

---------------------------------------------------------------------------|
---------------------------------------------------------------------------|
---------------------------------------------------------------------------|
-2-------------------------------------------------------------------------|
-2-------------------------------------------------------------------------|
-0---------0-000-0-000-000-0-000-0-000-000-0-000-0-000-000-0-000-0-000-000-|
           * *** * *** *** * *** * *** *** * *** * *** *** * *** * *** ***

---------------------------------------------------------------------------|
---------------------------------------------------------------------------|
---------------------------------------------------------------------------|
---------------------------------------------------------------------------|
---------------------------------------------------------------------------|
-0-000-0-000-000-0-000-0-000-000-0-000-0-000-000-0-000-0-000-000-----------|
 * *** * *** *** * *** * *** *** * *** * *** *** * *** * *** ***

Sorry dont have whammy so couldnt do a couple parts

1st Solo
---------------------------------------------------------------------------|
---------------------------------------------------------------------------|
----------------------------------16-14-12-14-12-14-16-14-12-14-12-14------|
---------------------------------------------------------------------------|
---------------------------------------------------------------------------|
-3-333-3-333-333-3-333-3-333-333-------------------------------------------|
 * *** * *** *** * *** * *** *** 
---------------------------------------------------------------17h19p17----|
-------------15-17-19b-20b20b20b19h20p19h20--10h12p10-10h12p10-------------|
-16-14-12-14---------------------------------------------------------------|
---------------------------------------------------------------------------|
---------------------------------------------------------------------------|
---------------------------------------------------------------------------|

-17h19p17--10h12p10-10h12p10-10h12p10--10h12p10-19191919191919191919191919-|
---------------------------------------------------------------------------|
---------------------------------------------------------------------------|
---------------------------------------------------------------------------|
---------------------------------------------------------------------------|
---------------------------------------------------------------------------|

-191919-19-20-19-19-20-19-19-20-19-19-24-24-17-19--19-24-24-17-19--19------|
---------------------------------------------------------------------------|
---------------------------------------------------------------------------|
---------------------------------------------------------------------------|
---------------------------------------------------------------------------|
---------------------------------------------------------------------------|

-24-24-17-19--19-17-17-19--19-15----------------------15-17-19-17-15---17--|
---------------------------------17----------------17---------------19-----|
------------------------------------16----------16-------------------------|
---------------------------------------17----17----------------------------|
------------------------------------------19-------------------------------|
---------------------------------------------------------------------------|

-15-------15---------------------------------------------------------------|
----19-17----19-17-15-19-17------------------------------------------------|
----------------------------17h19p17-16------------------------------------|
----------------------------------------------end solo---------------------|
---------------------------------------------------------------------------|
---------------------------------------------------------------------------|

---------------------------------------------------------------------------|
---------------------------------------------------------------------------|
---------------------------------------------------------------------------|
-4-5-7-5---7-9-7--9-11-9---11-12-11---12-14-12---14-16-14---16-17-16--14-12|
-2-3-5-3---5-7-5--7-9--7---9--10-9----10-12-10---12-14-12---14-15-14--12-10|
---------------------------------------------------------------------------|

---------------------------------------------------------------------------|
-12-0-0-12-0-0-12-0-13-0-13-0-10-0-10-0-12-0-0-12-0-0-12-0-13-0-13-0-10-0--|
---------------------------------------------------------------------------|
---------------------------------------------------------------------------|
---------------------------------------------------------------------------|
---------------------------------------------------------------------------|

---------------------------------------------------------------------------|
-10-0-12-0-0-12-0-0-12-0-13-0-13-0-10-0-10-0-12-0-0-12-0-0-12-0-13---------|
---------------------------------------------------------------------------|
---------------------------------------------------------------------------|
---------------------------------------------------------------------------|
---------------------------------------------------------------------------|

Riff 1 Chorus riff


Outro
---------------------------------------------------------------------------|
---------------------------------------------------------------------------|
------------------------------------------------------------------12-11-7-9|
----------------10-9----------------------------------10-9-----------------|
---10-9---5-7----------10-12--222-222----10-9---5-7----------10-12---------|
-0------0-----0------0--------000-000--0------0-----0------0---------------|
        *     *      *        *** ***         *     *      *

---------------------------------------------------------------------------|
---------------------------------------------------------------------------|
---------------------------------------------------------------------------|
----------------10-9-----------------------------------2-------------------|
---10-9---5-7----------10-12--222-222----10-9---5-7-7--2-------------------|
-0------0-----0------0--------000-000--0------0--------0-------------------|
        *     *      *        *** ***         *   

Key
/ Slide up
\ Slide down
* Palm mute
h Hammer on
p pull off
H. Harmonic         

 


                                                                Tabbed JRatz





Comments


Popular Machine Head tabs & chords
Now I Lay Thee Down Bass Tabs
Imperium Drum Tabs
Take My Scars Drum Tabs
Bite The Bullet Tabs
Death Church Tabs
From This Day Tabs
Imperium Tabs
Message In A Bottle 3 Tabs
Slanderous Tabs
The Burning Red Tabs


Song lyrics



↑ Back to top | Tablatures and chords are parodies/interpretations of the original songs. You may use it for private study, scholarship, research or language learning purposes only
© 2014 AZChords.com Contact us | Privacy policy | DMCA | Add/correct tabs | Request tabs | Top 50 tabs