>
 >
This Is The End

This Is The End Guitar Tabs

Machine Head - This Is The End chords, tabs, tablatures, lyrics

Guitar lessons | Add/correct | Request | Top 50 tabs Artists:  A B C D E F G H I J K L M N O P Q R S T U V W X Y Z 0-9

This Is The End Guitar Tabs – Machine Head

CD, Sheet music, Poster

Do you like This Is The End? Share with your friends now
TabsTabs v2Tabs v3
Band:   Machine Head
Tuning: Drop B (B, F#, B, E, G#, C#)

Machine Head don't play in Drop B precisely... They are tuned to
Drop B but then tuned up 40 cents sharper... So even though not possible
it's kind of like they're playing in Drop B# (Between Drop B and C)


On a Korg tuner it would look something like this

Tuner:
50                           x  50#
|--|--|--|--|-[-B-]-|--|--|--|--|

The 'x' is where you want to be tuned to
I hope that helps anyway... xD

Also comment, correct, and please, please rate!!!

On further note... Look forward to the final song from Unto The Locust
"Who We Are" and then finally the full album I will do soon :)

Acoustic Guitar: Robb Flynn
Guitar 1:        Robb Flynn
Guitar 2:        Phil Demmel
Guitar 3:        Harmony

Tabbing Legend
Hammer on:          h
Pull off:           p
Slide up:           /
Slide down:         \
Natural Harmonic:   NH
Bend:               BU(?)
Whammy Bar Rise:    WBR
Whammy Bar Lower:   WBL
Tremelo Pick:       Tr---
Trill:              tr

____________________________________________________________________________


Intro
Acoustic Guitar
|-6---6---6-5h6p5p3---5---5-----------|-----------------5-------------------5h6p5-|
|-------------------6---------5---5---|---5h6-3---5h6-3---5---4h5-2---4h5-2-------|
|---3---3---------------2---2---2---2-|---------------------2-------2-------------|
|-------------------------------------|-0-------0---------------------------------|
|-------------------------------------|-------------------------------------------|
|-------------------------------------|-------------------------------------------|

|-------------------------------0-5h6p5-|-----------------5-------------------5h6p5-|
|---5h6-3---5h6-3-----------3-2---------|---5h6-3---5h6-3---5---4h5-2---4h5-2-------|
|-3-------3-------0-2-3-0-2-------------|---------------------2-------2-------------|
|---------------------------------------|-0-------0---------------------------------|
|-----------------1-0-------0-----------|-------------------------------------------|
|---------------------5-----------------|-------------------------------------------|

|-------------------------------0-5h6p5-|-6---6---6-5h6p5p3---5---5-----------|
|---5h6-3---5h6-3-----------3-2---------|-------------------6---------5---5---|
|-3-------3-------0-2-3-0-2-------------|---3---3---------------2---2---2---2-|
|---------------------------------------|-------------------------------------|
|---------------------------------------|-------------------------------------|
|---------------------------------------|-------------------------------------|

Guitar 2
||-------------------------------------|--------------------------------------------||
|o-15-----------15WB(13)-----------17WB|(15)-------------18-18\17-17\15-15\13-13/15-o|
||-------------------------------------|--------------------------------------------||
||-------------------------------------|--------------------------------------------||
|o-------------------------------------|--------------------------------------------o|
||-------------------------------------|--------------------------------------------||
|
|Guitar 3
||-13-----------13WB(12)-----------15WB|(13)-------------17-17\15-15\13-13\12-12/13-||
|o-------------------------------------|--------------------------------------------o|
||-------------------------------------|--------------------------------------------||
||-------------------------------------|--------------------------------------------||
|o-------------------------------------|--------------------------------------------o|
||-------------------------------------|--------------------------------------------||

Guitar 2
|--------------------------------------|
|-18-----------20WB(17)----------------|
|--------------------------------------|
|--------------------------------------|
|--------------------------------------|
|--------------------------------------|
|
|Guitar 3
|-17-----------18WB(15)----------------|
|--------------------------------------|
|--------------------------------------|
|--------------------------------------|
|--------------------------------------|
|--------------------------------------|

____________________________________________________________________________

Drum Solo

____________________________________________________________________________


Chorus
Both guitars
|---------------------------------------------------------------------------------|
|---------------------------------------------------------10-10-10-10-------------|
|---------10-10-10-10-7-7-7-7---------10-10-10-10-7-7-7-7-------------10-10-10-10-|
|-0---------------------------0-0-0-0---------------------------------------------|
|---------------------------------------------------------------------------------|
|---------------------------------------------------------------------------------|

|-------------------------------------------------------------------------|
|-------------------------------------------------11-11-11-11-10-10-10-10-|
|---------9-9-9-9-6-6-6-6---------9-9-9-9-6-6-6-6-------------------------|
|-7-----------------------7-7-7-7-----------------------------------------|
|-------------------------------------------------------------------------|
|-------------------------------------------------------------------------|

|---------------------------------------------------------------------------------|
|---------------------------------------------------------------------------------|
|---------10-10-10-10-7-7-7-7---------10-10-10-10-9-9-9-9-10-10-10-10-12-12-12-12-|
|-8---------------------------8-8-8-8---------------------------------------------|
|---------------------------------------------------------------------------------|
|---------------------------------------------------------------------------------|

|---------------------------------10-10-10-10-|
|-11-11-11-11-8-8-8-8-10-10-10-10-------------|
|---------------------------------------------|
|---------------------------------------------|
|---------------------------------------------|
|---------------------------------------------|

|-9-9-9-9-12-12-12-12-18-18-18-18-17-17-17-17-|
|---------------------------------------------|
|---------------------------------------------|
|---------------------------------------------|
|---------------------------------------------|
|---------------------------------------------|

____________________________________________________________________________


Verse 1
Both guitars
|---------------------------------|---------------------------------|
|---------------------------------|-------------------------6p5-----|
|---------------------------------|-----------------------------5/7-|
|---------------8\7---3/5---------|---------------8\7---3/5---------|
|---8\7---3/5---------------------|---8\7---3/5---------------------|
|-0-----0-----0-----0-----000-000-|-0-----0-----0-----0-------------|

Guitar 1
|---------------------------------|---------------------------------|
|---------------------------------|---------------------------------|
|---------------------------------|---------------------------------|
|---------------8\7---3/5-7-5-----|---------------------------------|
|---8\7---3/5-----------------8p7-|---------------------------------|
|-0-----0-----0-----0-------------|-7-777-7-777-777-7-777-7-777-777-|
|
|Guitar 2
|---------------------------------|---------------------------------|
|---------------------------------|---------------------------------|
|---------------------------------|---------------------------------|
|---------------8\7---3/5---------|---------------------------------|
|---8\7---3/5-------------8-7-5p4-|---------------------------------|
|-0-----0-----0-----0-------------|-7-777-7-777-777-7-777-7-777-777-|

Guitar 1
|---------------------------------|---------------------------------|
|---------------------------------|-------------------------6p5-----|
|---------------------------------|-----------------------------5/7-|
|---------------8\7---3/5---------|---------------8\7---3/5---------|
|---8\7---3/5---------------------|---8\7---3/5---------------------|
|-0-----0-----0-----0-----000-000-|-0-----0-----0-----0-------------|
|
|Guitar 2
|---------------------------------|-----------------------------------|
|---------------------------------|-------------------------10p8------|
|---------------------------------|------------------------------9/10-|
|---------------8\7---3/5---------|---------------8\7---3/5-----------|
|---8\7---3/5---------------------|---8\7---3/5-----------------------|
|-0-----0-----0-----0-----000-000-|-0-----0-----0-----0---------------|

Both guitars
|----------------------------------|---------------------------------|
|----------------------------------|---------------------------------|
|----------------------------------|---------------------------------|
|---------------8\7---3/5----------|---------------------------------|
|---8\7---3/5-------------8p7------|---------------------------------|
|-0-----0-----0-----0---------10p9-|-7-777-7-777-777-7-777-7-777-777-|

|-------------------------------------------------------|
|-------------------------------------------------------|
|-14-141414-14-141414-141414-14-141414-14-141414-141414-|
|-------------------------------------------------------|
|-12-121212-12-121212-121212-12-121212-12-121212-121212-|
|-------------------------------------------------------|

____________________________________________________________________________


Verse 2
Guitar 1
|--------------------------------------------------------------------|
|--------------------------------------------------------------------|
|--------------------------------------------------------------------|
|-8-------8---8-------8---8-------8-------8---8-------15p0-14p0-10p0-|
|---5-0-5---5---5-0-5---5---5-0-5---5-0-5---5---5-0-0----------------|
|--------------------------------------------------------------------|
|
|Guitar 2
|-----------------------------------------------------------------|
|-----------------------------------------------------------------|
|-----------------------------------------------------------------|
|-----------------------------------------------------------------|
|-------------------------0-0-0-0-------------------------0-0-0-0-|
|-------------------------0-0-0-0-------------------------0-0-0-0-|

Guitar 1
|-------------------------------------------------------------------------|
|-------------------------------------------------------------------------|
|-------------------------------------------------------------------------|
|-8-------8---8-------8-----------12p0-10p0-14p0-12p0-15p0-14p0-17p0-15p0-|
|---5-0-5---5---5-0-5---5-------------------------------------------------|
|-------------------------0-0-0-0-----------------------------------------|
|
|Guitar 2
|-----------------------------------------------------------------|
|-----------------------------------------------------------------|
|-----------------------------------------------------------------|
|-----------------------------------------------------------------|
|-------------------------0-0-0-0-------------------------0-0-0-0-|
|-------------------------0-0-0-0-------------------------0-0-0-0-|

Both guitars
|--------------------------------------------------------------------|
|--------------------------------------------------------------------|
|--------------------------------------------------------------------|
|-8-------8---8-------8-----------8-------8---8-------15p0-14p0-10p0-|
|---5-0-5---5---5-0-5---5-0-0-0-0---5-0-5---5---5-0-0----------------|
|-------------------------0-0-0-0------------------------------------|

Guitar 1
|-------------------------------------------------------------------------|
|-------------------------------------------------------------------------|
|-------------------------------------------------------------------------|
|-8-------8---8-------8-----------12p0-10p0-14p0-12p0-15p0-14p0-17p0-15p0-|
|---5-0-5---5---5-0-5---5-------------------------------------------------|
|-------------------------0-0-0-0-----------------------------------------|
|
|Guitar 2
|-------------------------------------------------------------------------|
|-------------------------------------------------------------------------|
|-------------------------------------------------------------------------|
|-8-------8---8-------8-----------15p0-14p0-17p0-15p0-19p0-17p0-20p0-19p0-|
|---5-0-5---5---5-0-5---5-------------------------------------------------|
|-------------------------0-0-0-0-----------------------------------------|

Both guitars
|---------------------------------|---------------------------------|
|---------------------------------|---------------------------------|
|---------------------------------|---------------------------------|
|-8-------8-----x-8---7---5---3---|-3/7------------------------(7)\-|
|-8-------8-----x-8---7---5---3---|-3/7------------------------(7)\-|
|-8-------8-----x-8---7---5---3---|-3/7------------------------(7)\-|

____________________________________________________________________________


Verse 3
Both guitars
|-----------------------------------|-----------------------------------|
|-----------------------------------|-----------------------------------|
|-----------------------------7NH---|-----------------------------7NH---|
|-----------------8\7---3/5-----7NH-|-----------------8\7---3/5-----7NH-|
|-----8\7---3/5---------------------|-----8\7---3/5---------------------|
|-0-------0-----0-----0-----0-------|-0-------0-----0-----0-----0-------|

|----------------------------------|------------------13-------13-------13-------|
|----------------------------------|------------------16BU(18)-16BU(18)-16BU(18)-|
|----------------------------------|---------------------------------------------|
|-----------------8\7---3/5--------|---------------------------------------------|
|-----8\7---3/5---------------/8-7-|------8\7---5/7------------------------------|
|-8-------0-----0-----0-----0------|-10-------0-----0----------------------------|

|---------------------------------|
|---------------------------------|
|---------------------------------|
|-0-------------------------------|
|-0-------------------------------|
|-0-------------------------------|

____________________________________________________________________________


Pre-solo verse
Guitar 1
||---------------------------------||
|o---------------------------------o|
||---------------------------------|| x4
||---------------------------------||
|o---------------------------------o|
||-0-000-0-000-000-0-000-0-000-000-||

Guitar 2
(Third time guitar 1 plays the above)
|---------------------------------|
|---------------------------------|
|---------------------------------|
|-0-WBL-(12NH)-WBR----------------|
|---------------------------------|
|---------------------------------|

____________________________________________________________________________


Solo 1
Guitar 1 (Rhythm)
|---------------------------------|---------------------------------|
|---------------------------------|---------------------------------|
|---------------------------------|---------------------------------|
|---------------------------------|---------------------------------|
|---------------------------------|---------------------------------|
|-3-333-3-333-333-3-333-3-333-333-|-7-777-7-777-777-7-777-7-777-777-|

|---------------------------------|---------------------------------|
|---------------------------------|---------------------------------|
|---------------------------------|---------------------------------|
|---------------------------------|---------------------------------|
|-5-555-5-555-555-5-555-5-555-555-|-3-333-3-333-333-3-333-3-333-333-|
|---------------------------------|---------------------------------|

Guitar 2 (Lead) (With Wah-Wah)
|---------------------------------|
|---------------------------------|
|-5NH-WBR-------------------------|
|---------------------------------|
|---------------------------------|
|---------------------------------|

|---------------------------------------------------------------------------|
|------------------------------------------------------15---17---17BU(18)---|
|-14-12--------12-14-12--------12-14-12--------12-14------------------------|
|------15-14-15--------15-14-15--------15-14-15-----------------------------|
|---------------------------------------------------------------------------|
|---------------------------------------------------------------------------|

Guitar 2
|-----------------------------------13tr15-17tr20-|
|-(18)-(18)-(18)-(18)(17)-15-13tr15---------------|
|-------------------------------------------------|
|-------------------------------------------------|
|-------------------------------------------------|
|-------------------------------------------------|
|
|Guitar 3
|----------------------------13tr15-17tr20-20tr24-|
|-------------------------------------------------|
|-------------------------------------------------|
|-------------------------------------------------|
|-------------------------------------------------|
|-------------------------------------------------|

Guitar 2
  Tr---------------------------------------------
|-19------------20-19---20-19-20-19---20-19-20-19-|
|-------------------------------------------------|
|-------------------------------------------------|
|-------------------------------------------------|
|-------------------------------------------------|
|-------------------------------------------------|

|-22-17-15tr17-22-17-15tr17-22-17-15tr17----------|
|----------------------------------------20BU(22)-|
|-------------------------------------------------|
|-------------------------------------------------|
|-------------------------------------------------|
|-------------------------------------------------|

|-17p13--------------13-15h17p15--13-15p13p12h13p12\10-----------------------------|
|------15----------15-----------17---------------------13h15p13p11\10h11p10\8------|
|--------14------14-----------------------------------------------------------10p9-|
|----------15--15------------------------------------------------------------------|
|------------17--------------------------------------------------------------------|
|----------------------------------------------------------------------------------|

____________________________________________________________________________


Solo 2
Guitar 1 (Rhythm)
|-----------------------------------------------------------------------------|
|-----------------------------------------------------------------------------|
|-2---3-5-3---5-7-5---7-9-7---9-10-9---10-12-10---12-14-12---14-15-14---12-10-|
|-----------------------------------------------------------------------------|
|-0---1-3-1---3-5-3---5-7-5---7--8-7----8-10--8---10-12-10---12-13-12---10--8-|
|-----------------------------------------------------------------------------|

Guitar 2 (Lead) (With Wah Wah)
|--------------------|------------------------------|
|--------------------|------------------------------|
|-2tr3-----3tr5-5tr7-|-3tr5-----12p10p9h10p9\7-5tr7-|
|--------------------|------------------------------|
|--------------------|------------------------------|
|--------------------|------------------------------|

|-------------------------------|------------------------------------|
|-------------------------------|----------------------8-10-11-8tr10-|
|-7-----7-9-10-9-7-----7-9-10-9-|-12-10-9-7-----7-9-10---------------|
|-------------------------------|------------------------------------|
|-------------------------------|------------------------------------|
|-------------------------------|------------------------------------|

|--------------------------------------|
|-8tr10--------------13-15-17-17BU(18)-|
|-----------12-14-15-------------------|
|--------------------------------------|
|--------------------------------------|
|--------------------------------------|

|----------------------------------------15----------------|
|-17BU(18)(17)p15-17------------15-17-18----18-17-15-------|
|----------------------14-15-17----------------------17-15-|
|----------------------------------------------------------|
|----------------------------------------------------------|
|----------------------------------------------------------|

|----------------------------------------18----------------|
|-20BU(22)(20)p18-20------------18-20-22----22-20-18-------|
|----------------------17-19-21----------------------21-19-|
|----------------------------------------------------------|
|----------------------------------------------------------|
|----------------------------------------------------------|

|----------------------------------------20----------------|-----|
|-22BU(23)(22)p20-22------------20-22-23----23-22-20-------|-22\-|
|----------------------19-21-22----------------------22-21-|-----|
|----------------------------------------------------------|-----|
|----------------------------------------------------------|-----|
|----------------------------------------------------------|-----|

____________________________________________________________________________


Breakdown
Guitar 1
|-5-0-0-5-0-0-5-0-6-0-6-0-3-0-3-0-|
|---------------------------------|
|---------------------------------|
|---------------------------------|
|---------------------------------|
|---------------------------------|
|
|Guitar 2
|-17-0-0-17-0-0-17-0-18-0-18-0-15-0-15-0-|
|----------------------------------------|
|----------------------------------------|
|----------------------------------------|
|----------------------------------------|
|----------------------------------------|

Guitar 1
|-12-0-0-12-0-0-12-0-13-0-13-0-10-0-10-0-|
|----------------------------------------|
|----------------------------------------|
|----------------------------------------|
|----------------------------------------|
|----------------------------------------|
|
|Guitar 2
|-17-0-0-17-0-0-17-0-18-0-18-0-15-0-15-0-|
|----------------------------------------|
|----------------------------------------|
|----------------------------------------|
|----------------------------------------|
|----------------------------------------|

____________________________________________________________________________


Repeat Chorus
Guitar 2 (Harmony)
|-------------------------------------------------------------------------------------|
|-------------------------------------------------------------15-15-15-15-10-10-10-10-|
|-----14-14-14-14-10-10-10-10---------14-14-14-14-10-10-10-10-------------------------|
|-0---------------------------0-0-0-0-------------------------------------------------|
|-------------------------------------------------------------------------------------|
|-------------------------------------------------------------------------------------|

|-----------------------------------------------------10-10-10-10-9-9-9-9-|
|-------------------------------------------------------------------------|
|-----12-12-12-12-9-9-9-9---------12-12-12-12-9-9-9-9---------------------|
|-7-----------------------7-7-7-7-----------------------------------------|
|-------------------------------------------------------------------------|
|-------------------------------------------------------------------------|

|---------------------------------------------------------------------------------|
|-----10-10-10-10---------------------10-10-10-10-8-8-8-8-10-10-10-10-11-11-11-11-|
|-----------------10-10-10-10-----------------------------------------------------|
|-8---------------------------8-8-8-8---------------------------------------------|
|---------------------------------------------------------------------------------|
|---------------------------------------------------------------------------------|

|-10-10-10-10-----------9-9-9-9-13-13-13-13-|
|------------10-10-10-10--------------------|
|-------------------------------------------|
|-------------------------------------------|
|-------------------------------------------|
|-------------------------------------------|

|-12-12-12-12-15-15-15-15-22-22-22-22-21-21-21-21-|
|-------------------------------------------------|
|-------------------------------------------------|
|-------------------------------------------------|
|-------------------------------------------------|
|-------------------------------------------------|

____________________________________________________________________________


Outro
Both guitars
|---------------------------------|---------------------------------|
|---------------------------------|---------------------------------|
|---------------------------------|---------------------------------|
|---------------8\7---3/5---------|---------------8\7---3/5---------|
|---8\7---3/5---------------------|---8\7---3/5---------------------|
|-0-----0-----0-----0-----0-0-0-0-|-0-----0-----0-----0-----0-0-0-0-|

|---------------------------------|---------------------------------|
|---------------------------------|---------------------------------|
|---------------------------------|---------------------------------|
|---------------8\7---3/5---------|---------------------------------|
|---8\7---3/5---------------------|---8\7---3/5---8-----------------|
|-0-----0-----0-----0-----0-0-0-0-|-0-----0-----0---0---------------|

That's all guys please rate :)





Comments


Popular Machine Head tabs & chords
The Blood The Sweat The Tears 2 Bass Tabs
The Burning Red Bass Tabs
The Burning Red 1 Bass Tabs
Blood For Blood Tabs
Bulldozer Tabs
Buring Red Tabs
Descend The Shades Of Night (Solo) Tabs
Only The Names Tabs
Silver Tabs
Spine 2 Tabs


Song lyrics



↑ Back to top | Tablatures and chords are parodies/interpretations of the original songs. You may use it for private study, scholarship, research or language learning purposes only
© 2014 AZChords.com Contact us | Privacy policy | DMCA | Add/correct tabs | Request tabs | Top 50 tabs