>
 >
Imperium 2

Imperium 2 Guitar Tabs

Machine Head - Imperium 2 chords, tabs, tablatures, lyrics

Guitar lessons | Add/correct | Request | Top 50 tabs Artists:  A B C D E F G H I J K L M N O P Q R S T U V W X Y Z 0-9

Imperium 2 Guitar Tabs – Machine Head

CD, Sheet music, Poster

Do you like Imperium 2? Share with your friends now
Bass TabsDrum TabsTabsTabs v2Tabs v3Tabs v4
Machine head - imperium
Tuning: C G C F A D
Recommended Tuning: D A D G B e
If you dont want to tune your guitar down this low then I recommend you try tuning your low E string down to D and leave the others in standard tuning.It sounds just as good in drop D.

Intro-Clean/Chorus
       
Guitar 1: Play Twice
|------------------------------------|
|------------------------------------|
|------------------------------------|  
|-4/5------7/5------4/5------7/5-----|
|-5/7------9/7------5/7------9/7-----|
|------------------------------------|

Guitar 2: Play Four Times
|------------------------------------|
|--------------------------------*---|
|----9-------9--------9------*-*-5---|  
|-----9-------10-------8-----5-5-----|
|--7---7---7----7---7---7------------|
|------------------------------------|
	
Guitar 2: Play Twice
|-----------------------------------------|
|------------------------------------*----|
|--------------------------------*-*-5----| 
|-02-------10-10-10-10--8-8-8-8--5-5------|
|-02--------------------------------------|
|-02--------------------------------------|

Guitar 1: Play Twice                
|---------------------|
|--------------*------|
|---------*-*--5------|  
|-0-2-----5-5---------|
|-0-2-----------------|
|-0-2-----------------|

Guitar 1: Play  Four Times
|-----------------------------------------------------------|
|-----------------------------------------------------------|
|-----------------------------------------------------------|  
|-----------------------------------------------------------|
|-----------------------------------------------------------|
|-2-2-2-2---2-2-2-2---2-2-2-2---2-2-2---2-2-2-2-2--2-2-2----|
...................pm...................................
    
Guitar 2: Play Twice on The last two times of Guitar One:
|------------------------------1212121212121212121212121212-|
|------------------------------x-x-x-x-x-x-x-x-x-x-x-x-x-x--|
|-5-5-5-5-5-5-5-5-5-5-5-5-5-5--9-9-9-9-9-9-9-9-9-9-9-9-9-9--|  
|-x-x-x-x-x-x-x-x-x-x-x-x-x-x-------------------------------|
|-7-7-7-7-7-7-7-7-7-7-7-7-7-7-------------------------------|
|-----------------------------------------------------------|
     
Verse:                                                           
|-------------------------------------------------------------| 
|-------------------------------------------------------------| 
|--p--------------------------------p-------------------------|      
|-2-0----------p-p-----------------2-0----------p-p--------*--|     
|-------------5-3-2-----------p-p--------------5-3-2-------3--|     
|-----2-2-2-2-------2-2-2-2--5-2-0-----2-2-2-2-------2-2-2----|      
|     .......       .......            .......       .....      
                                                                     
Pre Chorus:
|------------------------------------|                                     
|------------------------------------|                              
|-------------------------7-7-4------|                                         
|-3-3-3-------6-6-6-3-3-3------------|                                        
|-------5-5-5------------------------|                                      
|------------------------------------|                                 
  .............pm..............                                 
	
Play Once:
|----------------------------------------------------|
|----------------------------------------------------|
|----------------------------------------------------|
|--9/7-7-7--9/7-7-7--9/7-7--7/5-5-5--7/5-5-5--7/5-5--|
|--7/5-5-5--7/5-5-5--7/5-5--5/3-3-3--5/3-3-3--5/3-3--|
|----------------------------------------------------|    
    
Repeat Verse
    
Play Once:	
|----------------------------------------------------|
|----------------------------------------------------|
|----------------------------------------------------|
|--9/7-7-7--9/7-7-7--9/7-7--7/5-5-5--7/5-5-5--7/5-5--|
|--7/5-5-5--7/5-5-5--7/5-5--5/3-3-3--5/3-3-3--5/3-3--|
|----------------------------------------------------|
    
|------------------------------------|
|------------------------------------|
|------------------------------------|  
|-0-2---3-2---0-2--3-3-3-3-3-3-3-3---|
|-0-2---3-2---0-2--3-3-3-3-3-3-3-3---|
|-0-2---3-2---0-2--3-3-3-3-3-3-3-3---|
                   ......pm.......

|------------------------------------|
|-----*-------*-------*-------*------|
|-----5-------5-------5-------5------|
|------------------------------------|
|-0-2---2-3-2---2-0-2---2-3-2--------|
|-0-2---2-3-2---2-0-2---2-3-2--------|

|------------------------------------|
|------------------------------------|
|------------------------------------|  
|------------------------------------|
|-2/8-8--5-5-7-7/3-------------------|
|-2/8-8--5-5-7-7/3-------------------|2x    
      
Only play first time Two Times
|-----------------------------||---------------------------|
|-----------------------------||---------------------------|
|-----------------------------||---------------------------|  
|-----------------------------||---------------------------|
|-----------------------------||---------------------------|
|-2-2-2-2---2-2-2-2---2-2-2-2-||2-2-2--2-2-2-2-2--2-2-2----|2x

Play verse Twice

Play Once
|----------------------------------------------------|
|----------------------------------------------------|
|----------------------------------------------------|
|--9/7-7-7--9/7-7-7--9/7-7--7/5-5-5--7/5-5-5--7/5-5--|
|--7/5-5-5--7/5-5-5--7/5-5--5/3-3-3--5/3-3-3--5/3-3--|
|----------------------------------------------------|
    
Play Verse Once
    
Play Once:
|----------------------------------------------------|
|----------------------------------------------------|
|----------------------------------------------------|
|--9/7-7-7--9/7-7-7--9/7-7--7/5-5-5--7/5-5-5--7/5-5--|
|--7/5-5-5--7/5-5-5--7/5-5--5/3-3-3--5/3-3-3--5/3-3--|
|----------------------------------------------------|
    
|------------------------------------|
|------------------------------------|
|------------------------------------|  
|-0-2---3-2---0-2--3-3-3-3-3-3-3-3---|
|-0-2---3-2---0-2--3-3-3-3-3-3-3-3---|
|-0-2---3-2---0-2--3-3-3-3-3-3-3-3---|
                   .......pm......

|------------------------------------|
|-----*-------*-------*-------*------|
|-----5-------5-------5-------5------|
|------------------------------------|
|-0-2---2-3-2---2-0-2---2-3-2--------|
|-0-2---2-3-2---2-0-2---2-3-2--------|

|------------------------------------|
|------------------------------------|
|------------------------------------|  
|------------------------------------|
|-2/8-8--5-5-7-7/3-------------------|
|-2/8-8--5-5-7-7/3-------------------|2x
   
|------------------------------------|
|------------------------------------|
|------------------------------------|  
|-0----------------------------------|
|-0----------------------------------|
|-0----------------------------------|
    
|------------------------------------|
|------------------------------------|
|------------------------------------|  
|-0-1--0-1--0-1--6-3-4--1-4-3--------|
|-0-1--0-1--0-1--6-3-4--1-4-3--------|
|-0-1--0-1--0-1--6-3-4--1-4-3--------|2x
 
Middle Section: Play Twice
|---------------------------------------------------------------------|
|---------------------------------------------------------------------|
|---------------------------------------------------------------------|  
|------------------------------------------------------6-3-4--1-4-3---|
|------------------------------------------------------6-3-4--1-4-3---|
|-000-000-000-000-000-000-000-333-444-000-000-000-000--6-3-4--1-4-3---|
  ..........................pm........................

|------------------------------------|
|------------------------------------|
|---8\---8\---8\---------------------|  
|-0-x\-0-x\-0-x\-6-3-4--1-4-3--------|
|-0-6\-0-6\-0-6\-6-3-4--1-4-3--------|
|-0----0----0----6-3-4--1-4-3--------|

|------------------------------------|
|------------------------------------|
|--10\--10\--10\---------------------|  
|-0-x\-0-x\-0-x\-6-3-4--1-4-3--------|
|-0-8\-0-8\-0-8\-6-3-4--1-4-3--------|
|-0----0----0----6-3-4--1-4-3--------|
             
|------------------------------------|
|------------------------------------|
|------------------------------------|  
|-2----------------------------------|
|-2----------------------------------|
|-2----------------------------------|

Guitar 1			     
|------------------------------------|  
|------------------------------------|  
|-9--9/7--7/5--5/4-------------------|  
|------------------------------------|  
|-7--7/5--5/3--3/2-------------------|  
|------------------------------------|

Guitar 2			      
|------------------------------------|  
|------------------------------------|  
|-9--9/11-11/12-12/14----------------|  
|------------------------------------|  
|-7--7/9--9/10--10/12----------------|  
|------------------------------------|  
                                              
Guitar 2
|------------------------------------|
|------------------------------------|
|------------------------------------|
|-----2-----------5-4----------------|
|-----------4---------4-5------------|
|-2-2---2-2---2-2--------------------|2x
  ...   ...   ...
|------------------------------------|
|------------------------------------|
|------------------------------------|
|-----5-----4-----4-2----------------|
|-0-0---0-0---0-0--0-0-5-4-----------|
|------------------------------------|
  ...   ...   ...  . .

|-----------------|
|-----------------|
|-2---------------| 
|-2---------------|
|-0---------------|
|-----------------|

|------------------------------------|                           
|------------------5-3---------------|                          
|-----------------------5-4-5-4-2----|                          
|-----5-----3---------------------5--|                         
|-3-3---3-3---3-3--------------------|                           
|------------------------------------|                                   
  ...   ...   ...  
 
Guitar1
|-----------------|
|-----------------|
|-5---------------| 
|-5---------------|
|-3---------------|
|-----------------|
    
Guitar 1 & 2
|------------------------------------|                      
|------------------------------------|                     
|------------------------------------|                      
|-----2-----------5-4----------------|                      
|-----------4---------4-5------------|                        
|-2-2---2-2---2-2--------------------|2x                      
  ...   ...   ... 
  
|------------------------------------|               
|------------------------------------|                   
|------------------------------------|                               
|-----5-----4-----4-2----------------|                    
|-0-0---0-0---0-0--0-0-5-4-----------|                        
|------------------------------------|                     
  ...  ...    ...  . .     

|------------------------------------|
|------------------------------------|
|------------------------------------|  
|-0-2-0-22222222---------------------|
|-0-2-0-22222222---------------------|
|-0-2-0-22222222---------------------|3X

|------------------------------------|
|------------------------------------|
|------------------------------------|  
|-3-3-3------------------------------|
|-1-1-1-1-1-1------------------------|
|-------1-1-1------------------------|      

|------------------------------------|
|------------------------------------|
|------------------------------------|  
|------------------------------------|
|-0-2--0-2-2-2-2-2-2-2-2-------------|
|-0-2--0-2-2-2-2-2-2-2-2-------------|3x

Guitar 2
|-----------------------------------------|
|------------------------------------*----|
|--------------------------------*-*-5----| 
|-0-2------10-10-10-10--8-8-8-8--5-5------|
|-0-2-------------------------------------|
|-0-2-------------------------------------|2x

Guitar 1
|------------------------------------|
|------------------------------------|
|------------------------------------|  
|-0-2--------------------------------|
|-0-2--------------------------------|
|-0-2--------------------------------|2x





Comments


Popular Machine Head tabs & chords
American High Bass Tabs
Trephination 1 Bass Tabs
A Thousand Lies Tabs
Beautiful Mourning Tabs
Beautiful Mourning Intro Tabs
Desire To Fire 1 Tabs
Halo Tabs
Message In A Bottle 2 Tabs
Negative Creep - Nirvana Cover Tabs
This Is The End 1 Tabs


Song lyrics



↑ Back to top | Tablatures and chords are parodies/interpretations of the original songs. You may use it for private study, scholarship, research or language learning purposes only
© 2014 AZChords.com Contact us | Privacy policy | DMCA | Add/correct tabs | Request tabs | Top 50 tabs