>
 >
Imperium 5 String

Imperium 5 String Bass Tabs

Machine Head - Imperium 5 String chords, tabs, tablatures, lyrics

Guitar lessons | Add/correct | Request | Top 50 tabs Artists:  A B C D E F G H I J K L M N O P Q R S T U V W X Y Z 0-9

Imperium 5 String Bass Tabs – Machine Head

CD, Sheet music, Poster

Do you like Imperium 5 String? Share with your friends now
Bass Tabs
Machine Head
Imperium
Through the ashes of empires

Tuning B F# B E G#

Same as my other tab but ive added a fill at the end of the solo and just made some 5 stribng changes

I just saw them machine head live Oh my God It Kicked ass! and
i blacked out during left unfinished but i was quite conscious for this song so 
i got to see how adam duce plays this. he uses a 4 string for this but im just trying to get the point across that it isnt illegal to use a 5 string

intro (part 1): x1

     
    |---------------------------------------------------------|
    |---------------------------------------------------------|  
    |---------------------------------------------------------|
    |---------------------------------------------------------|
    |-0-2~~~~-------0-2~~~~-------0-2~~~~-------0-2~~~~-------|


Intro (part 2): x1
    |---------------------------------------------------------|
    |---------------------------------------------------------|
    |---------------------------------------------------------|
    |---------------------------------------------------------|
    |-0-2~~~~-------0-2~~~~-------0-2~~~~-------0-2~~~~-------|
	
 

    Intro (part 3): x4
     
    |-----------------------------------------------------------|
    |-----------------------------------------------------------|  
    |-----------------------------------------------------------|
    |-----------------------------------------------------------|
    |-2-2-2-2---2-2-2-2---2-2-2-2---2-2-2-2---2-2-2-2-2-2-2-2---|


    Verse (THE Riff!): x4       HEAR ME NOW!

    |----------------------------------------------------------------------
    |----------------------------------------------------------------------  
    |--------------------------------------------------------------------3~
    |----------------------------------------------------------------------
    |-2-2--0-0-0-0h2-2-2--0-0-0-0--2p0-0-0--2-2--0-0-00h2-2-2--0-0-0-0----

    
    --------------------------------------------------------------2-2-------------|
    ------------------------------------------------------------------4-----------| 
    --------------------------------------3-3-3-------6-6-6-3-3-3-----------------|
    --------------------------------------------5-5-5-----------------------------|
    2-2--0-0-0-0h2-2-2--0-0-0-0--2p0-0-0------------------------------------------|


         

     Verse interlude: x1

    |----------------------------------------------------|
    |----------------------------------------------------|
    |----------------------------------------------------|
    |--7/5-5-5--7/5-5-5--7/5-5--5/3-3-3--5/3-3-3--5/3-3--|
    |----------------------------------------------------|

    Verse: x1

    Verse interlude: x1

    Pre-Chorus: x1

 
    |------------------------------------|
    |------------------------------------|  
    |------------------------------------|
    |------------------------------------|
    |-0-2---3-2---0-2--3-3-3-3-3-3-3-3---|


    Chorus: 
                           

     
    |-----------------------------------------------------------------------|
    |-----------------------------------------------------------------------|
    |-----------------------------------------------------------------------|
    |-----------------------------------------------------------------------|
    |-0-2---2-3-2---2-0-2---2-3-2---0-2---2-3-2---2/8-8--5-5-7-7/5----------|

 
    Intro (part 3): x1.5

    Verse: x2

    Verse interlude: x1

    Verse: x1

    Verse Interlude: x1

    Pre-Chorus: x1

    Chorus: x2

    Breakdown (part 1): x1

    |-------|
    |-------|
    |-------|
    |-------|
    |-0~~~~~|

    Breakdown Part 2: x2
 
        

     
    |------------------------------------|
    |------------------------------------|  
    |------------------------------------|
    |------------------------------------|
    |-0~-1-0~-1-0~-1--6-3-4--1-4-3-----|

    Breakdown part 3: x2

     
    |-----------------------------------------------------------------|
    |-----------------------------------------------------------------|  
    |-----------------------------------------------------------------|
    |-----------------------------------------------------------------|
    |-000-000-000-000-000-000-333-444-000-000-000-000--6-3-4--1-4-3---|

    Breakdown part 2: x2


    Breakdown part 4: x1
       

    |------------------------------------|
    |------------------------------------|  
    |------------------------------------|
    |------------------------------------|
    |-2~~~~~~~~~~~~~~~~------------------|

		 
    Beakdown Part 5:

    |------------|
    |------------|
    |------------|
    |-0~~~~3~~~~~|
    |------------|


    Solo Part 1: x2

    |------------------------------------|
    |------------------------------------|  
    |------------------------------------|
    |--------------------.--.--.--.------|
    |-2-2---2-2---2-2----2--2--2--2------|



    Solo part 2: x1
 
    |------------------------------------| 
    |------------------------------------|  
    |--------------------.--.--.--.------|
    |-0-0---0-0---0-0----0--0--0--0------|
    |------------------------------------|


    Solo Part 3: x1

    |--------------------0---------------| (plat these notes quickly)
    |----------------------3-2-----------|    
    |--------------------------5-5-4-2-0-|    
    |-3-3---3-3---3-3--------------------|
    |------------------------------------|

     


    Solo part 1: x2

    Solo part 2: x1

    Solo part 3: x1

    Solo part 1: x2

    Solo part 2: x1

    Solo Part 3: x1

    Fill at end of solo: x1

    |------------------------|
    |------------------------|
    |------------------------|
    |--10\---10\---10\-------| (slide these really quickly)
    |------------------------|


    Breakdown part 6: x4
    
    |-------------------|----|----|--------------|
    |-------------------|----|----|--------------| 
    |-------------------|----|----|--------------|
    |-------------------|----|----|-1-1-1--------|
    |-0h2-0-22222222----|----|----|-------1-1-1--|


    
    |-------------------|
    |-------------------|
    |-------------------|
    |--1-1-1----------|
    |----------1-1--1--|
 

    Outro: x2
    |------------------------|-----|-----|-------------------|
    |------------------------|-----|-----|-------------------|
    |------------------------|-----|-----|-------------------|
    |---^--------------------|-----|-----|-1-1-1-----------|
    |-0-1--0-2-2-2-2-2-2-2-2-|-----|-----|----------1-1-1--|


    Intro part 1: x1


	I hope you have fun with the song because it kicks arse, Im not 100% on the solo riffs but I think is right, I know the rest of it is correct. Thankyou, please rate





Comments


Popular Machine Head tabs & chords
Be Still And Know Bass Tabs
From This Day Bass Tabs
All In Your Head Tabs
Beautiful Morning Tabs
Davidian 1 Tabs
Descend The Shades Of Night 4 Tabs
Five 1 Tabs
Machinehead Tabs
Nothing Left Tabs
Seasons Wither 2 Tabs


Song lyrics



↑ Back to top | Tablatures and chords are parodies/interpretations of the original songs. You may use it for private study, scholarship, research or language learning purposes only
© 2014 AZChords.com Contact us | Privacy policy | DMCA | Add/correct tabs | Request tabs | Top 50 tabs