>
 >
Descend The Shades Of Night 4

Descend The Shades Of Night 4 Guitar Tabs

Machine Head - Descend The Shades Of Night 4 chords, tabs, tablatures, lyrics

Guitar lessons | Add/correct | Request | Top 50 tabs Artists:  A B C D E F G H I J K L M N O P Q R S T U V W X Y Z 0-9

Descend The Shades Of Night 4 Guitar Tabs – Machine Head

CD, Sheet music, Poster

Do you like Descend The Shades Of Night 4? Share with your friends now
ChordsTabsTabs v2Tabs v3Tabs v4Ukulele
Machine Head - Descend The Shades Of Night (Solo)


P.M. = Palm Mute
   / = Slide Up
   \ = Slide Down
   ^ = Pitch Bend


Tuning low to high: B, F#, B, E, G#, C#


I decided to have a go at tabbing this solo.
I think that most of it is right, but some of it is 
guesswork, I'm not really a lead player.



Play at the end of the chorus
|----------------------------------12--|
|-------------------------12-13-15-----|
|-------------------12-14--------------|
|----------12-14-15--------------------|
|-12-13-15-----------------------------|
|--------------------------------------|



|-----------------12-13-15-13-12--------|
|--------12-13-15----------------13-14--|
|--12-14--------------------------------|
|---------------------------------------|
|---------------------------------------|
|---------------------------------------|




|------------14---------------------------|
|-/14-----------13------------------------|
|------------------12\10\9/10/12\10\9/10--|
|-----------------------------------------|
|-----------------------------------------|
|-----------------------------------------|



                               [3/4]      [1 tone]  [1 tone]
|-18\17----18\17----18\17-15--15^(15)----15^---19--15^(15)----------|
|-------15-------15-------------------18------------------17-18-17--|
|-------------------------------------------------------------------|
|-------------------------------------------------------------------|
|-------------------------------------------------------------------|
|-------------------------------------------------------------------|



|--------------------------|
|-17h18p17h18p17h18p17h18--|
|--------------------------|
|--------------------------|
|--------------------------|
|--------------------------| x 4



|-------------15-------------------|
|-17-15-17-18----18-17-15-17-15----|
|-------------------------------17-|
|----------------------------------|
|----------------------------------|
|----------------------------------|


                             [1 tone]
|------------------------------------|
|-15---------------------------------|
|---17-15-14-15-14----14-------------|
|------------------17----15-17^(17)--|
|------------------------------------|
|------------------------------------|


|-----------------------------------|
|--/15--18--15--20--15--22--15--23--|
|-----------------------------------|
|-----------------------------------|
|-----------------------------------|
|-----------------------------------| x 2
I'm not sure but this bit could be finger tapping



 Guitar 1
|------------------------3-5-6-5-3--|
|------------3-5-6-3-5-6------------|
|------2-3-5------------------------|
|--3-5------------------------------|
|-----------------------------------|
|-----------------------------------|
|P.M - - - - - - - - - - -
|
|Guitar 2
|-----------------------------------|
|----------------3-------3-5-6-5-3--|
|--------0-2-3-5---2-3-5------------|
|--0-2-3----------------------------|
|-----------------------------------|
|-----------------------------------|
 P.M.- - - - - - - - - - -



 Guitar 1
|--8-6-5---5--------8-6h8p6-5---5--------|
|--------8---8-6-5------------8---8-6-5--|
|----------------------------------------|
|----------------------------------------|
|----------------------------------------|
|----------------------------------------|
|
|
|Guitar 2
|--5-3-1-0-1-0------5-3h5p3-1-0-1-0------|
|--------------3-1------------------3-1--|
|----------------------------------------|
|----------------------------------------|
|----------------------------------------|
|----------------------------------------| x 2



 Guitar 1
|--10-8-6----6---------10-8h10p8-6----6---------|
|---------10---10-8-6--------------10---10-8-6--|
|-----------------------------------------------|
|-----------------------------------------------|
|-----------------------------------------------|
|-----------------------------------------------|
|
|
|Guitar 2
|--6--5-3----3---------6--5h6p-5-3----3---------|
|---------6----6--5-3--------------6----6--5-3--|
|-----------------------------------------------|
|-----------------------------------------------|
|-----------------------------------------------|
|-----------------------------------------------|



 Guitar 1
|----------------------------------15-17-18-17-15--|
|----------------15-17-18-15-17-18-----------------|
|-------14-15-17-----------------------------------|
|-15-17--------------------------------------------|
|--------------------------------------------------|
|--------------------------------------------------|
|P.M.-  -  -  -  -  -  -  -  -  -  -
|
|Guitar 2
|--------------------------------------------------|
|----------------------15----------15-17-18-17-15--|
|----------12-14-15-17----14-15-17-----------------|
|-12-14-15-----------------------------------------|
|--------------------------------------------------|
|--------------------------------------------------|
 P.M.-  -  -  -  -  -  -  -  -  -  -



 Guitar 1
|--20-18h20p18-17----17-----------|
|-----------------20----20-18-17--|
|---------------------------------|
|---------------------------------|
|---------------------------------|
|---------------------------------|
|
|
|Guitar 2
|--17-15h17p15-13----13-----------|
|-----------------17----17-15-13--|
|---------------------------------|
|---------------------------------|
|---------------------------------|
|---------------------------------| x 4



 Guitar 1
|--22-20h22p20-18----18-----------|
|-----------------22----22-20-18--|
|---------------------------------|
|---------------------------------|
|---------------------------------|
|---------------------------------|
|
|
|Guitar 2
|--18-17h18p17-15----15-----------|
|-----------------18----18-17-15--|
|---------------------------------|
|---------------------------------|
|---------------------------------|
|---------------------------------| x 2



 Guitar 1
|--22^----22^----22^----22^----|
|------------------------------|
|------------------------------|
|------------------------------|
|------------------------------|
|------------------------------|
|
|
|Guitar 2
|--18^----18^----18^----18^----|
|------------------------------|
|------------------------------|
|------------------------------|
|------------------------------|
|------------------------------|



Well that's as good as I can get it, feel free to correct anything.





Comments


Popular Machine Head tabs & chords
A Nation On Fire Bass Tabs
Bite The Bullet Bass Tabs
The Blood The Sweat The Tears 3 Bass Tabs
The Burning Red 1 Bass Tabs
Trephination 1 Bass Tabs
Burning Red 2 Tabs
Bush 1 Tabs
Deafening Silence 2 Tabs
Halo 1 Tabs
The Burningg Red Tabs


Song lyrics



↑ Back to top | Tablatures and chords are parodies/interpretations of the original songs. You may use it for private study, scholarship, research or language learning purposes only
© 2014 AZChords.com Contact us | Privacy policy | DMCA | Add/correct tabs | Request tabs | Top 50 tabs