>
 >
Descend The Shades Of Night 2

Descend The Shades Of Night 2 Guitar Tabs

Machine Head - Descend The Shades Of Night 2 chords, tabs, tablatures, lyrics

Guitar lessons | Add/correct | Request | Top 50 tabs Artists:  A B C D E F G H I J K L M N O P Q R S T U V W X Y Z 0-9

Descend The Shades Of Night 2 Guitar Tabs – Machine Head

CD, Sheet music, Poster

Do you like Descend The Shades Of Night 2? Share with your friends now
ChordsTabsTabs v2Tabs v3Tabs v4Ukulele
Descend the Shades of Night

Tuned down to B

Guitar 1 Acoustic :                                       

--55---5---5--     --55---5----5--- 5-             Repeat x
--6---6---6---6--     --5---5---5----5----5
--7---7---7---7--     --6---6---6----6----6
--7---7---7---7--     --5---5---5----5----5
--5---5---5---5-5      -7---7---7----7----7-5

Guitar 2 Acoustic : 

-------------------17151415-12-------------------171514-19---14-     reapeat x2
--14-15-17-14------------------------------14-15-17-14---------------------------


Guitars 1 and 2 :

-5-5-5-5-5-5-5-5-7-7-7-7-7-7-7-7-7-------------------------
-5-5-5-5-5-5-5-5-7-7-7-7-7-7-7-7-7-------------------------
-5-5-5-5-5-5-5-5-7-7-7-7-7-7-7-7-7--------------------------

Chorus  Guitar 1 :

-8-8-8-8-8-8-8-------0---0---0----8-8-8-8-8-8---0---0---0----8-8-8-8-8-8-----3-3-3-3-3-3-3-------
-8-8-8-8-8-8-8-------0---0---0----8-8-8-8-8-8---0---0---0----8-8-8-8-8-8-----3-3-3-3-3-3-3-------





Chorus Guitar 2 :

-888---8---8----0-----0---08---8888----0---00---8---8----8---88---3---3---3
-11-1111-11-11---3----3----311-11-1111-11333-111111-11-11666
-10-10---10-10-10---2----2----2---10-10-10---10-10---2---2---2-10---10---10-10-10---5---5---5


Begining of solo Guitar 2 :

-1213151312-------------15---------------------------------------------------1817---18--
----------------------------13---15--------1513-----------------138-------------------------15------
-------------------------------------------------------12---1012---------109--------------------------

If anyone knows the rest of the solo. That would be cool.





Comments


Popular Machine Head tabs & chords
Aesthetics Of Hate 1 Bass Tabs
Davidian 2 Bass Tabs
The Blood Sweat Tears Bass Tabs
Aesthetics Of Hate Intro Tabs
American High 1 Tabs
Crashing Around You Tabs
Days Turn Blue To Gray 1 Tabs
Deafening Silence 1 Tabs
Seasons Wither Intro Tabs
Vim 1 Tabs


Song lyrics



↑ Back to top | Tablatures and chords are parodies/interpretations of the original songs. You may use it for private study, scholarship, research or language learning purposes only
© 2014 AZChords.com Contact us | Privacy policy | DMCA | Add/correct tabs | Request tabs | Top 50 tabs