» » »

Machine Head, Descend The Shades Of Night Tabs (ver.2)

Artists:  A B C D E F G H I J K L M N O P Q R S T U V W X Y Z # 

Descend The Shades Of Night Tabs (ver.2)

Machine Head Tabs
Rating:
0/5 (0 votes)
Descend The Shades Of Night lessons Tabs too difficult? Try these video lessons and learn fast
                guitar 1

-0-0-0-0--1-1-1-1--0-0-0-0--0-0-0-0-
-1-1-1-1--3-3-3-3--0-0-0-0--0-0-0-0-
-2-2-2-2--2-2-2-2--2-2-2-2--1-1-1-1-
-2-2-2-2--0-0-0-0--2-2-2-2--2-2-2-2-
------------------------------------
------------------------------------
guitar 2

-----0-1-5--3-----3----------0-1-5--3-----3--4-
-1-3-----5--5--5--5--1---1-3-----5--5--5--5--5-
-2-------------5-----2---2-------------5-------
-----------------------------------------------
-----------------------------------------------
-----------------------------------------------
            
Submit corrections

comments powered by Disqus
↑ Back to top | Machine Head Tabs for Descend The Shades Of Night. Lyrics for acoustic guitar and electric guitar. Tablatures and chords are parodies/interpretations of the original songs. You may use it for private study, scholarship, research or language learning purposes only