array
(
    
'deafeningsilence2' => 'deafeningsilence2'
    'machinehead' 
=> 'machinehead'
)
Deafening Silence Tabs (ver. 3) by Machine Head @ AZ CHORDS.COM
» » »

Deafening Silence Tabs (ver.3)

Artists:  A B C D E F G H I J K L M N O P Q R S T U V W X Y Z # 

Deafening Silence Tabs (ver.3)

Machine Head
Rating:
0/5 (0 votes)

Hard to play? Try these video lessons and learn fast.
                Tuning: BEADF#b (that's the tuning i use for almost all the machine head
                 songs as opposed to dropped B or other tunings that are
                 out there on the net...cause its nice and low...and the
                 harmonics sound right on this tuning)

Key:
	~ - hold
	p - pull off
	h - hammer on
       () - natural harmonics
17b19rb17 - bend from 17th fret to 19th and then release back to 17th




Intro/verse

|-----------------------------
|-----------------------------
|--11------------11-----------
|------12~p11-11----9~h11-11--
|-----------------------------
|-----------------------------


Pre-Chorus

|-------------------------------
|-------10/12~-------10/12~-----
|--10~--9 /11~--10~--9 /11~-----
|--10~----------10~----------5--
|----------------------------5--
|----------------------------3--


Chorus

|------------------------(12)------------------------------
|------(7)-(12)------(7)-----------(7)-(12)------(7)-------
|----------------------------------------------------------
|--9-9-----------4-4-----------5-5-------------------(3)---
|--9-9-----------4-4-----------5-5-----------2-2-----------
|--7-7-----------2-2-----------3-3-----------0-0-----------

|------------------------(12)------------------------------
|------(7)-(12)------(7)-----------(7)-(12)------(7)-------
|----------------------------------------------------------
|--9-9-----------4-4-----------5-5-----------7-7-----(3)---
|--9-9-----------4-4-----------5-5-----------7-7-----------
|--7-7-----------2-2-----------3-3-----------5-5-----------


After 1st Chorus

|-------------------------
|-------------------------
|--11~-----11~------------
|------12~-----11~--------
|-------------------------
|-------------------------


Interlude

|--------------------------------------------------------- (x2)
|---------------------------------------------------------
|---------------------------------------------------------
|---------------------------------------------------------
|--9--11/12~---5--12\11-7---9--11/12---5--12-11-----------
|--7--9 /10~---3--10\9--5---7--9 /10---3--10-9---12~------


|----------------------
|----------------------
|----------------------
|----------------------
|--9-12\11--12-12-12---
|--7-10\9---10-10-10---


Solo

|----------------------17----17-14-19p17p14h17------------17p15p14-----------
|--12--14--12--14--12-----17-------------------17b19rb17-----------17p15p14--
|----------------------------------------------------------------------------
|----------------------------------------------------------------------------
|----------------------------------------------------------------------------
|----------------------------------------------------------------------------

|---------------22-19-------------------------------------------------------------
|--19-15-17-----------14-15-17--15-17-19b20rb19--17b19rb19--15-14-15b17rb17-14/---
|-----------16--------------------------------------------------------------------
|---------------------------------------------------------------------------------
|---------------------------------------------------------------------------------
|---------------------------------------------------------------------------------


Solo Rhythm

|-------------------------------
|-------------------------------
|-------------------------------
|-------------------------------
|---9--4--5--2----9--4--5--7----
|---7--2--3--0----7--2--3--5----
            
Hard to play? Try these video lessons and learn fast. | Correct




comments powered by Disqus
↑ Back to top | Tablatures and chords are parodies/interpretations of the original songs. You may use it for private study, scholarship, research or language learning purposes only