» » »

Machine Head, Deafening Silence Bass tabs (ver.1)

Artists:  A B C D E F G H I J K L M N O P Q R S T U V W X Y Z # 

Deafening Silence Bass tabs (ver.1)

Machine Head Tabs
Rating:
0/5 (0 votes)
Deafening Silence lessons Tabs too difficult? Try these video lessons and learn fast
                
This song is my favourite one off supercharger and i heard that mh 
are releasing this as a single in america instead of crashing around 
you because of controversey.drop tuning one step.

intro :

|--------
|--------     x 5
|--------
|---19/6-  

verse :

|----------------------------------------
|----------------------------------------     x 3
|----------------------------------------
|---66666666-44444444-222222222-44444444-

pre chorus :

|------------------------------------
|------------------------------------     x 1
|------------------------------------
|---0~-0-1-2~-0~-0-1-2-2-2-2-2-2-2-2-

chorus : 

|------------------------------------------
|------------------------------------------     x 2
|------------------------------------------
|---6-6--1-1--2-2--0-0--6-6--1-1--2-2--4-4-

verse x 5

pre chourus  x 1

chorus  x 2

post chorus :

|--------------------------------------
|--------------------------------------     x 1
|--------------------------------------
|---66666666-11111111-2222222-44444444-

bridge :

|------------
|------------     x 5
|------------
|---6~--2~---

riff 1(during guitar solo) :

|---------------------------------------
|---------------------------------------     x 1
|---------------------------------------
|---66666666-11111111-22222222-00000000-

post chorus x 1


pre chorus x 2

last chorus 1 :

|--------------------------------------------------------------------------
|--------------------------------------------------------------------------    
|--------4---------------------------------4-------------------------------
|---66-66-6-11-11-0-1-22-2222-00-0000-66-66-6-11-11-0-1-22-22-1-2-44-44-3-4
    x 1

last chorus 2 :

|------------------------------------------------
|------------------------------------------------     x 1
|---------4--------------------------------------
|---666666-6-111111-0-1-222222-1-2-444444-3-4-6~-

Thats it,it gets tricky at the end but practice it and youll get it,good luck.
            
Submit corrections

comments powered by Disqus
↑ Back to top | Machine Head Bass for Deafening Silence. Lyrics for acoustic guitar and electric guitar. Tablatures and chords are parodies/interpretations of the original songs. You may use it for private study, scholarship, research or language learning purposes only