» » »

Every Mother's Son Tabs (ver.2)

Artists:  A B C D E F G H I J K L M N O P Q R S T U V W X Y Z # 

Every Mother's Son Tabs (ver.2)

Lynyrd Skynyrd
Rating:
0/5 (0 votes)

Hard to play? Try these video lessons and learn fast.
                Ok, this song is pretty simple, with some bends in the solos
I havent taken the time to figure out the last solo, so here it is (They used a strat 
ryhtym, a les paul for lead, and an acoustic)
(#)=artificial harmonic
rb=release bend
(h)=hold note
Note, in the first solo with  the 7b9r7 it is like bend+release and bend and release in 
same note, if that makes any sense. It is very hard to tab out with all the bends, i may 
The chord progression goes
G-D-C-D
This alternates ever other time
So first time,
                               (slide up 2 frets)
|-3-3-------2--------0--0--0--0----0--0--0--0-|
|-3---3-----3--------1--1--1--1s3--3--3--3--1-|
|-0------2--2--------0--0--0--0----0--0--0--0-|
|-0------0--0-----2--2--2--2--2s4--4--4--4--2-|
|-2-------------3----3--3--3--3s5--5--5--5--3-|
|-3-------------------------------------------|
Then next time...

|-3-3-------2--------0--0--0--------------------|
|-3---3-----3--------1--1--1--------------------|
|-0------2--2--------0--0--0--------0---------0-|
|-0------0--0-----2--2--2--2-----0h2----0h2h4---|
|-2-------------3----3--3--3--------------------|
|-3---------------------------------------------|
In place of the little fills (like the slide up on the c), you play D

First Solo
       (release)
|--10b12-r-10--------------------------------------------------------------|
|-------------10b12-r-10---------------------------------------------------|
|-------------------------9p7----------------------------------------------|
|-----------------------------9p7---7b9r7b9r-7b9r (7)b9r-(5)-(7)b9r-(7)-(5)|
|--------------------------------------------------------------------------|
|--------------------------------------------------------------------------|

2nd solo
|----------------------------10-----------------10-------10b12(h)10--------|
|-----------------8--10b12(h)---rb--10b12r10b12----rb--8-----------10b12r-8|
|------------7--9----------------------------------------------------------|
|------5--7----------------------------------------------------------------|
|--5s7---------------------------------------------------------------------|
|--------------------------------------------------------------------------|

|------------------------------10-10-----10b12-10-10b12-10-------10----|
|----------8---------8---10b12(h)---rb-8-------------------10b12(h)-rb-|
|--9p7-9p7---9p7-9p7---------------------------------------------------|
|----------------------------------------------------------------------|
|----------------------------------------------------------------------|
|----------------------------------------------------------------------|
                        pick notes then slide
|--------10-10-----------------------15-|
|--10b12(h)---rb10-10-8-----------------|
|------------------------7s9s12s14s16---|
|---------------------------------------|
|---------------------------------------|
|---------------------------------------|
            
Hard to play? Try these video lessons and learn fast. | Correct




comments powered by Disqus
↑ Back to top | Tablatures and chords are parodies/interpretations of the original songs. You may use it for private study, scholarship, research or language learning purposes only