» » »

Tuesday's Gone Tabs

Artists:  A B C D E F G H I J K L M N O P Q R S T U V W X Y Z # 

Tuesday's Gone Tabs

(ver. 1)
Lynyrd Skynyrd Tabs
 Rating:
4/5 (4 votes)
    Tuesday's Gone lessons Tabs too difficult? Try these video lessons and learn fast
                e-----0-----------2-----------3-----------5-------------------------------
b---------3-----------3-----------3-----------3---------------------------
g-------------------------------------------------------------------------
d-0-----------0-----------0-----------0-----------------------------------
a-------------------------------------------------------------------------
e-------------------------------------------------------------------------


----

Kyle Woods

Intro For Tuesday's Gone:
It Sounds Like A Keyboard.....

|--9-9-10-9-7-----9-7-9p7p6-5-----7-9-7-9--|
|------------------------------------------|
|------------------------------------------|
|------------------------------------------|
|------------------------------------------|
|------------------------------------------|

|-9-10-9-7-5--9-10----9-10----9-10----9-10-|
|------------------0-------0-------0-------|
|------------------------------------------|
|------------------------------------------|
|------------------------------------------|
|------------------------------------------|

And Thats It.
            
Submit corrections

↑ Back to top | Lynyrd Skynyrd Tabs for Tuesday's Gone. Lyrics for acoustic guitar and electric guitar. Tablatures and chords are parodies/interpretations of the original songs. You may use it for private study, scholarship, research or language learning purposes only