>
 >
Every Mother's Son

Every Mother's Son Bass Tabs

Lynyrd Skynyrd - Every Mother's Son chords, tabs, tablatures, lyrics

Guitar lessons | Add/correct | Request | Top 50 tabs Artists:  A B C D E F G H I J K L M N O P Q R S T U V W X Y Z 0-9

Every Mother's Son Bass Tabs – Lynyrd Skynyrd

CD, Sheet music, Poster

Do you like Every Mother's Son? Share with your friends now
Bass TabsChordsTabs
     W                   W                   W                 
G||-------------------|-------------------|-------------------|
D||-------------------|-------------------|-------------------|
A||-------------------|-------------------|-------------------|
E||-------------------|-------------------|-------------------|


  W                   W                   W                   W                 
-------------------|-------------------|-------------------|-------------------|
-------------------|-------------------|-------------------|-------------------|
-------------------|-------------------|-------------------|-------------------|
-------------------|-------------------|-------------------|-------------------|


  W                   W                   W                   W                 
-------------------|-------------------|-------------------|-------------------|
-------------------|-------------------|-------------------|-------------------|
-------------------|-------------------|-------------------|-------------------|
-------------------|-------------------|-------------------|-------------------|


  W                   W                   W                   W                 
-------------------|-------------------|-------------------|-------------------|
-------------------|-------------------|-------------------|-------------------|
-------------------|-------------------|-------------------|-------------------|
-------------------|-------------------|-------------------|-------------------|


  W                   W                   H        S  S S S  S  S E   
-------------------|-------------------|----------------5-7S-9S-7-5--|
-------------------|-------------------|-----------5h-7--------------|
-------------------|-------------------|-----------------------------|
-------------------|-------------------|--3--------------------------|


  H.           Q       Q     S   E.   Q     E    E     H.           Q     
--L-----------------|-------12S-14---12-------------|--------------------|
--------------------|----------------------12S--10--|--L-----------------|
---------------5----|-------------------------------|---------------5----|
--------------------|--3----------------------------|--------------------|


  Q     S   E.   Q    E      E     E   Q    Q     E   Q     
-------14S-16---14-------12g14--|--L--12----9----12--------|
--5-----------------------------|--------------------12----|
--------------------------------|--------------------------|
--------------------------------|--------------------------|


  Q    E  E  S  S S S  S S E     H        Q    Q     
------------------------------|---------------------|
------------------------------|---------------------|
----------3-------3-5S-7-5-3--|--L--------5----7----|
--3----5-----3h-5-------------|---------------------|


  Q    S  S E  S  S E  S  S E     E  E  Q    S S E  S  S E   
-------------------------------|----------------------------|
--------------------5----------|--------5--------5----------|
------------5--5h-7----7S-5-3--|--L--3-------5-7----7p-5----|
--3----5S-7--------------------|-------------------------7--|


  Q    S  S E  S  S E  S  S E     E  E  Q    S S E  S  S E   
-------------------------------|----------------------------|
--------------------5----------|--------5--------5----------|
------------5--5h-7----7S-5-3--|--L--3-------5-7----7p-5----|
--3----5S-7--------------------|-------------------------7--|


  Q    S  S E  S  S E  S  S E     E  E  Q    S S E  S  S E   
-------------------------------|----------------------------|
--------------------5----------|--------5--------5----------|
------------5--5h-7----7S-5-3--|--L--3-------5-7----7p-5----|
--3----5S-7--------------------|-------------------------7--|


  Q    S  S E  S  S E  S  S E     W                 
-------------------------------|-------------------|
--------------------5----------|-------------------|
------------5--5h-7----7S-5-3--|--L----------------|
--3----5S-7--------------------|-------------------|


  Q    S  S E  S  S E  S  S E     E  E  Q    S S E  S  S E   
-------------------------------|----------------------------|
--------------------5----------|--------5--------5----------|
------------5--5h-7----7S-5-3--|--L--3-------5-7----7p-5----|
--3----5S-7--------------------|-------------------------7--|


  Q    S  S E  S  S E  S  S E     W                   W                 
-------------------------------|-------------------|-------------------|
--------------------5----------|-------------------|-------------------|
------------5--5h-7----7S-5-3--|--L----------------|-------------------|
--3----5S-7--------------------|-------------------|-------------------|


  Q    Q    E  E  E  E     E  E  Q    E  E  E  E     Q    Q    E  E  E  E   
------------------------|-------------------------|------------------------|
------------------------|-------------------------|------------------------|
-------5-------------3--|--L--3--5----3--5--3-----|-------5-------------3--|
--3---------3--5--7-----|----------------------7--|--3---------3--5--7-----|


  E  E  Q    E  E  E  E     Q    Q    E  E  E  E     E  E  Q    E  E  E  E   
-------------------------|------------------------|-------------------------|
-------------------------|------------------------|-------------------------|
--L--3--5----3--5--3-----|-------5-------------3--|--L--3--5----3--5--3-----|
----------------------7--|--3---------3--5--7-----|----------------------7--|


  Q    Q    E  E  E  E     E  E  Q    E  E  E  E     Q    Q    E  E  E  E   
------------------------|-------------------------|------------------------|
------------------------|-------------------------|------------------------|
-------5-------------3--|--L--3--5----3--5--3-----|-------5-------------3--|
--3---------3--5--7-----|----------------------7--|--3---------3--5--7-----|


  E  E  Q    E  E  E  E     Q    Q    E  E  E  E     E  E  Q    E  E  E  E   
-------------------------|------------------------|-------------------------|
-------------------------|------------------------|-------------------------|
--L--3--5----3--5--3-----|-------5-------------3--|--L--3--5----3--5--3-----|
----------------------7--|--3---------3--5--7-----|----------------------7--|


  Q    Q    E  E  E  E     E  E  Q    E  E  E  E     Q    Q    E  E  E  E   
------------------------|-------------------------|------------------------|
------------------------|-------------------------|------------------------|
-------5-------------3--|--L--3--5----3--5--3-----|-------5-------------3--|
--3---------3--5--7-----|----------------------7--|--3---------3--5--7-----|


  E  E  Q    E  E  E  E     Q    S  S E  S  S E  S  S E   
-------------------------|-------------------------------|
-------------------------|--------------------5----------|
--L--3--5----3--5--3-----|------------5--5h-7----7S-5-3--|
----------------------7--|--3----5S-7--------------------|


  E  E  Q    S S E  S  S E     Q    S  S E  S  S E  S  S E   
----------------------------|-------------------------------|
--------5--------5----------|--------------------5----------|
--L--3-------5-7----7p-5----|------------5--5h-7----7S-5-3--|
-------------------------7--|--3----5S-7--------------------|


  E  E  Q    S S E  S  S E     Q    S  S E  S  S E  S  S E   
----------------------------|-------------------------------|
--------5--------5----------|--------------------5----------|
--L--3-------5-7----7p-5----|------------5--5h-7----7S-5-3--|
-------------------------7--|--3----5S-7--------------------|


  E  E  Q    S S E  S  S E     Q    S  S E  S  S E  S  S E   
----------------------------|-------------------------------|
--------5--------5----------|--------------------5----------|
--L--3-------5-7----7p-5----|------------5--5h-7----7S-5-3--|
-------------------------7--|--3----5S-7--------------------|


  W                   Q    Q    E  E  E  E     E  E  Q    E  E  E  E   
-------------------|------------------------|-------------------------|
-------------------|------------------------|-------------------------|
--L----------------|-------5-------------3--|--L--3--5----3--5--3-----|
-------------------|--3---------3--5--7-----|----------------------7--|


  Q    Q    E  E  E  E     E  E  Q    E  E  E  E     Q    Q    E  E  E  E   
------------------------|-------------------------|------------------------|
------------------------|-------------------------|------------------------|
-------5-------------3--|--L--3--5----3--5--3-----|-------5-------------3--|
--3---------3--5--7-----|----------------------7--|--3---------3--5--7-----|


  E  E  Q    E  E  E  E     Q    Q    E  E  E  E     E  E  Q    E  E  E  E   
-------------------------|------------------------|-------------------------|
-------------------------|------------------------|-------------------------|
--L--3--5----3--5--3-----|-------5-------------3--|--L--3--5----3--5--3-----|
----------------------7--|--3---------3--5--7-----|----------------------7--|


  Q    S  S E  S  S E  S  S E     E  E  Q    S S E  S  S E   
-------------------------------|----------------------------|
--------------------5----------|--------5--------5----------|
------------5--5h-7----7S-5-3--|--L--3-------5-7----7p-5----|
--3----5S-7--------------------|-------------------------7--|


  Q    S  S E  S  S E  S  S E     E  E  Q    S S E  S  S E   
-------------------------------|----------------------------|
--------------------5----------|--------5--------5----------|
------------5--5h-7----7S-5-3--|--L--3-------5-7----7p-5----|
--3----5S-7--------------------|-------------------------7--|


  Q    S  S E  S  S E  S  S E     E  E  Q    S S E  S  S E   
-------------------------------|----------------------------|
--------------------5----------|--------5--------5----------|
------------5--5h-7----7S-5-3--|--L--3-------5-7----7p-5----|
--3----5S-7--------------------|-------------------------7--|


  Q    S  S E  S  S E  S  S E     E  E  Q    S S E  S  S E   
-------------------------------|----------------------------|
--------------------5----------|--------5--------5----------|
------------5--5h-7----7S-5-3--|--L--3-------5-7----7p-5----|
--3----5S-7--------------------|-------------------------7--|


  Q    S  S E  S  S E  S  S E     E  E  Q    S S E  S  S E   
-------------------------------|----------------------------|
--------------------5----------|--------5--------5----------|
------------5--5h-7----7S-5-3--|--L--3-------5-7----7p-5----|
--3----5S-7--------------------|-------------------------7--|


  Q    S  S E  S  S E  S  S E     E  E  Q    S S E  S  S E   
-------------------------------|----------------------------|
--------------------5----------|--------5--------5----------|
------------5--5h-7----7S-5-3--|--L--3-------5-7----7p-5----|
--3----5S-7--------------------|-------------------------7--|


  Q    S  S E  S  S E  S  S E     E  E  Q    S S E  S  S E   
-------------------------------|----------------------------|
--------------------5----------|--------5--------5----------|
------------5--5h-7----7S-5-3--|--L--3-------5-7----7p-5----|
--3----5S-7--------------------|-------------------------7--|


  Q    S  S E  S  S E  S  S E     W                   W                 
-------------------------------|-------------------|-------------------|
--------------------5----------|-------------------|-------------------|
------------5--5h-7----7S-5-3--|--L----------------|--L----------------|
--3----5S-7--------------------|-------------------|-------------------|


  Q    Q    E  E  E  E     E  E  Q    E  E  E  E     Q    Q    E  E  E  E   
------------------------|-------------------------|------------------------|
------------------------|-------------------------|------------------------|
-------5-------------3--|--L--3--5----3--5--3-----|-------5-------------3--|
--3---------3--5--7-----|----------------------7--|--3---------3--5--7-----|


  E  E  Q    E  E  E  E     Q    Q    E  E  E  E     E  E  Q    E  E  E  E   
-------------------------|------------------------|-------------------------|
-------------------------|------------------------|-------------------------|
--L--3--5----3--5--3-----|-------5-------------3--|--L--3--5----3--5--3-----|
----------------------7--|--3---------3--5--7-----|----------------------7--|


  Q    Q    E  E  E  E     E  E  Q    E  E  E  E     Q    Q    E  E  E  E   
------------------------|-------------------------|------------------------|
------------------------|-------------------------|------------------------|
-------5-------------3--|--L--3--5----3--5--3-----|-------5-------------3--|
--3---------3--5--7-----|----------------------7--|--3---------3--5--7-----|


  E  E  Q    E  E  E  E     Q    Q    E  E  E  E     E  E  Q    E  E  E  E   
-------------------------|------------------------|-------------------------|
-------------------------|------------------------|-------------------------|
--L--3--5----3--5--3-----|-------5-------------3--|--L--3--5----3--5--3-----|
----------------------7--|--3---------3--5--7-----|----------------------7--|


  Q    Q    E  E  E  E     E  E  Q    E  E  E  E     Q    Q    E  E  E  E   
------------------------|-------------------------|------------------------|
------------------------|-------------------------|------------------------|
-------5-------------3--|--L--3--5----3--5--3-----|-------5-------------3--|
--3---------3--5--7-----|----------------------7--|--3---------3--5--7-----|


  E  E  Q    E  E  E  E     Q    S  S E  S  S E  S  S E   
-------------------------|-------------------------------|
-------------------------|--------------------5----------|
--L--3--5----3--5--3-----|------------5--5h-7----7S-5-3--|
----------------------7--|--3----5S-7--------------------|


  E  E  Q    S S E  S  S E     Q    S  S E  S  S E  S  S E   
----------------------------|-------------------------------|
--------5--------5----------|--------------------5----------|
--L--3-------5-7----7p-5----|------------5--5h-7----7S-5-3--|
-------------------------7--|--3----5S-7--------------------|


  E  E  Q    S S E  S  S E     Q    S  S E  S  S E  S  S E   
----------------------------|-------------------------------|
--------5--------5----------|--------------------5----------|
--L--3-------5-7----7p-5----|------------5--5h-7----7S-5-3--|
-------------------------7--|--3----5S-7--------------------|


  E  E  Q    S S E  S  S E     Q    S  S E  S  S E  S  S E   
----------------------------|-------------------------------|
--------5--------5----------|--------------------5----------|
--L--3-------5-7----7p-5----|------------5--5h-7----7S-5-3--|
-------------------------7--|--3----5S-7--------------------|


  W                   Q    S  S E  S  S E  S  S E   
-------------------|-------------------------------|
-------------------|--------------------5----------|
--L----------------|------------5--5h-7----7S-5-3--|
-------------------|--3----5S-7--------------------|


  E  E  Q    S S E  S  S E     Q    S  S E  S  S E  S  S E   
----------------------------|-------------------------------|
--------5--------5----------|--------------------5----------|
--L--3-------5-7----7p-5----|------------5--5h-7----7S-5-3--|
-------------------------7--|--3----5S-7--------------------|


  E  E  Q    S S E  S  S E     Q    S  S E  S  S E  S  S E   
----------------------------|-------------------------------|
--------5--------5----------|--------------------5----------|
--L--3-------5-7----7p-5----|------------5--5h-7----7S-5-3--|
-------------------------7--|--3----5S-7--------------------|


  E  E  Q    S S E  S  S E     Q    S  S E  S  S E  S  S E   
----------------------------|-------------------------------|
--------5--------5----------|--------------------5----------|
--L--3-------5-7----7p-5----|------------5--5h-7----7S-5-3--|
-------------------------7--|--3----5S-7--------------------|


  E  E  Q    S S E  S  S E     Q    S  S E  S  S E  S  S E   
----------------------------|-------------------------------|
--------5--------5----------|--------------------5----------|
--L--3-------5-7----7p-5----|------------5--5h-7----7S-5-3--|
-------------------------7--|--3----5S-7--------------------|


  E  E  Q    S S E  S  S E     Q    S  S E  S  S E  S  S E   
----------------------------|-------------------------------|
--------5--------5----------|--------------------5----------|
--L--3-------5-7----7p-5----|------------5--5h-7----7S-5-3--|
-------------------------7--|--3----5S-7--------------------|


  E  E  Q    S S E  S  S E     Q    S  S E  S  S E  S  S E   
----------------------------|-------------------------------|
--------5--------5----------|--------------------5----------|
--L--3-------5-7----7p-5----|------------5--5h-7----7S-5-3--|
-------------------------7--|--3----5S-7--------------------|


  E  E  Q    S S E  S  S E     Q    S  S E  S  S E  S  S E   
----------------------------|-------------------------------|
--------5--------5----------|--------------------5----------|
--L--3-------5-7----7p-5----|------------5--5h-7----7S-5-3--|
-------------------------7--|--3----5S-7--------------------|


  W                   Q    S  S E  S  S E  S  S E   
-------------------|-------------------------------|
-------------------|--------------------5----------|
--L----------------|------------5--5h-7----7S-5-3--|
-------------------|--3----5S-7--------------------|


  E  E  Q    S S E  S  S E     Q    S  S E  S  S E  S  S E   
----------------------------|-------------------------------|
--------5--------5----------|--------------------5----------|
--L--3-------5-7----7p-5----|------------5--5h-7----7S-5-3--|
-------------------------7--|--3----5S-7--------------------|


  E  E  Q    S S E  S  S E     Q    S  S E  S  S E  S  S E   
----------------------------|-------------------------------|
--------5--------5----------|--------------------5----------|
--L--3-------5-7----7p-5----|------------5--5h-7----7S-5-3--|
-------------------------7--|--3----5S-7--------------------|


  E  E  Q    S S E  S  S E     Q    S  S E  S  S E  S  S E   
----------------------------|-------------------------------|
--------5--------5----------|--------------------5----------|
--L--3-------5-7----7p-5----|------------5--5h-7----7S-5-3--|
-------------------------7--|--3----5S-7--------------------|


  E  E  Q    S S E  S  S E     W                  
----------------------------|-------------------||
--------5--------5----------|-------------------||
--L--3-------5-7----7p-5----|-------------------||
-------------------------7--|--3----------------||




Duration Legend
---------------
W - whole
H - half
Q - quarter
E - 8th
S - 16th
T - 32nd
X - 64th
. - note dotted
|-n-|  - n-tuplets


Tablature Legend
----------------
L - tied note
x - dead note
g - grace note
(n) - ghost note
> - accentuded note
NH - natural harmonic
AH - artificial harmonic
TH - tapped harmonic
SH - semi harmonic
PH - pitch harmonic
h - hammer on
p - pull off
b - bend
br - bendRelease
pb - preBend
pbr - preBendRelease
brb - bendReleaseBend
\n/ - tremolo bar dip
\n - tremolo bar dive
-/n - tremolo bar Release up
/n\ - tremolo bar inverted dip
/n - tremolo bar return
-\n - tremolo bar Release down
S - shift slide
s - legato slide
/ -  slide into from below or out of upwards
\ -  slide into from above or out of downwards
~ - vibrato
W - wide vibrato
tr - trill
TP - tremolo picking
T - tapping
S - slap
P - pop
< - fade in
^ - brush up
v - brush down





Comments


Popular Lynyrd Skynyrd tabs & chords
Free Bird 2 Bass Tabs
Am I Losin' Chords
All I Can Do Is Wright About It Tabs
Honky Tonk Night Time Man Tabs
Saturday Night Special Tabs
Saturday Night Special 1 Tabs
Southern Ways Intro Tabs
The Ballad Of Curtis Loew Tabs
The Needle And The Spoon 2 Tabs
Southern Ways Ukulele


Song lyrics



↑ Back to top | Tablatures and chords are parodies/interpretations of the original songs. You may use it for private study, scholarship, research or language learning purposes only
© 2014 AZChords.com Contact us | Privacy policy | DMCA | Add/correct tabs | Request tabs | Top 50 tabs