» » »

The Sea Is A Good Place To Think Of The Future Tabs (ver.2)

Artists:  A B C D E F G H I J K L M N O P Q R S T U V W X Y Z # 

The Sea Is A Good Place To Think Of The Future Tabs (ver.2)

Los Campesinos
Rating:
5/5 (2 votes)

Hard to play? Try these video lessons and learn fast.
                e|--------------------------------------------------------------------------|
B|--------------------------------------------------------------------------|
G|--------------------------------------------------------------------------|
D|--------------------------------------------------------------------------|
A|----2-2-------2-2-------2-2------2-2------6-6-------6-6-------6-6------6-6|
E|4-4-----4-4-4-----4-4-4-----4-4-4---4/-7-7-----7-7-7-----7-7-7----7-7-7---|
Twice
then
e|-----------------------------------------------------------------------------|
B|-----------------------------------------------------------------------------|
G|-----------------------------------------------------------------------------|
D|-----------------------------------------------------------------------------|
A|----2-2-------2-2-------4-4-------6-6------4-4-------4-4------6-6------9-9---|
E|0-0-----0-0-0-----2-2-2-----0-0-0-----2-2-2-----2-2-2----0-0-0----0-0-0------|

e|---------------------------------------------------------------------------|
B|---------------------------------------------------------------------------|
G|---------------------------------------------------------------------------|
D|---------------------------------------------------------------------------|
A|--------2-2-------6-6-------9-9--------------------------------------------|
E|--0-0-0-----0-0-0-----0-0-0------------------------------------------------|

e|----------------------------------------------------------------------------------|
B|----------------------------------------------------------------------------------|
G|----------------------------------------------------------------------------------|
D|------------------------------------------------4-4------4-4-------1-1-------1-1--|
A|-------4-4-------4-4------6-6-------9-9---0-0-0-----0-0-0----0-0-0-----0-0-0------|
E|-2-2-2-----2-2-2-----0-0-0----0-0-0-----------------------------------------------|

Then for the second half of the verse,
after "she was always far too pretty for me to believe
in a single word she said..." move it up one string, so the same riff is repeated, but 
on the A string. Then that finishes with
e|---------------------------------------------------------------------------|
B|---------------------------------------------------------------------------|
G|---------------------------------------------------------------------------|
D|-------4-4------4-4-------1-1-------1-1------------------------------------|
A|-0-0-0-----0-0-0----0-0-0-----0-0-0----------------------------------------|
E|---------------------------------------------------------------------------|
again.
Chorus: C#m?        : e|-0--|
                      B|-0--|
                      G|-9--|
                      D|-11-|
                      A|-11-|
                      E|-9--|

  F#m?:               e|-0--|
                      B|-0--|
                      G|-2--|
                      D|-4--|
                      A|-4--|
                      E|-2--|
C#m? E Asus2 E Asus2 E F#m? Asus2 *2
Then repeat the verse and chorus, and end
on E pretty much. Hopefully a bit more helpful than the other tab.
I did this by ear, and by watching a video of
them play it acoustic, so it should be pretty damn close!
            
Hard to play? Try these video lessons and learn fast. | Correct




comments powered by Disqus
↑ Back to top | Tablatures and chords are parodies/interpretations of the original songs. You may use it for private study, scholarship, research or language learning purposes only