>
 >
The Sea Is A Good Place To Think Of The Future 2

The Sea Is A Good Place To Think Of The Future 2 Guitar Tabs

Los Campesinos - The Sea Is A Good Place To Think Of The Future 2 chords, tabs, tablatures, lyrics

Guitar lessons | Add/correct | Request | Top 50 tabs Artists:  A B C D E F G H I J K L M N O P Q R S T U V W X Y Z 0-9

The Sea Is A Good Place To Think Of The Future 2 Guitar Tabs – Los Campesinos

CD, Sheet music, Poster

Do you like The Sea Is A Good Place To Think Of The Future 2? Share with your friends now
ChordsTabsTabs v2Tabs v3Ukulele
Los Campesinos! - The Sea Is A Good Place To Think Of The Future



Tuning: Standard

This tab is merely my way of playing this gorgeous song on an acoustic guitar without a pick
and some parts are simplified for a players' convenience,
so please do not tell me that it's WRONG. It sounds pretty right when played over the song anyway.
It is also my first tab, by the way, so cut me some slack :). 

INTRO:

e|------------|------------|------------|------------| \
B|------------|------------|------------|------------|  \
G|------------|------------|------------|------------|   \
D|------------|------------|------------|------------|    \
A|-------2---2|-------2---2|-------2---2|-------2---2|     \
E|-4---4---4--|-4---4---4--|-4---4---4--|-4---4---4--|      \
                                                            (x2)
e|------------|------------|------------|------------|      /
B|------------|------------|------------|------------|     /
G|------------|------------|------------|------------|    /
D|------------|------------|------------|------------|   /
A|-------6---6|-------6---6|-------6---6|-------6---6|  /
E|4/7--7---7--|-7---7---7--|-7---7---7--|-7---7---7--| /


e|------------|------------|------------|------------| 
B|------------|------------|------------|------------| 
G|------------|------------|------------|------------|   
D|------------|------------|------------|---1---1---1|    
A|-------2---2|-------2---2|---4---4---4|------------|     
E|-0---0---0--|-0---0---0--|-2---2---2--|-2---2---2--|  

e|------------|------------|------------|------------| 
B|------------|------------|------------|------------| 
G|------------|------------|------------|------------|   
D|------------|------------|------------|---4---4---4|    
A|-------4---4|-------4---4|---6---6---6|------------|     
E|-2---2---2--|-2---2---2--|-4---4---4--|-4---4---4--| 

e|------------|------------|------------|------------| 
B|------------|------------|------------|------------| 
G|------------|------------|------------|------------|   
D|------------|------------|------------|---4---4---4|    
A|-------2---2|-------2---2|---6---6---6|------------|     
E|-0---0---0--|-0---0---0--|-4---4---4--|-4---4---4--| 

e|------------|------------|------------|------------| 
B|------------|------------|------------|------------| 
G|------------|------------|------------|------------|   
D|------------|------------|------------|---4---4---4|    
A|-------4---4|-------4---4|---6---6---6|------------|     
E|-2---2---2--|-2---2---2--|-4---4---4--|-4---4---4--| 

e|------------|------------|------------|------------| 
B|------------|------------|------------|------------| 
G|------------|------------|------------|------------|   
D|-------4---4|-------4---4|------------|------------|    
A|---6--------|---6--------|---6---6---6|---6---6---6|     
E|-5---5---5--|-5---5---5--|-5---5---5--|-5---5---5--| 



VERSE 1, pt.I (mostly the same as the intro, the only difference is at the end):

e|------------|------------|------------|------------| \
B|------------|------------|------------|------------|  \
G|------------|------------|------------|------------|   \
D|------------|------------|------------|------------|    \
A|-------2---2|-------2---2|-------2---2|-------2---2|     \
E|-4---4---4--|-4---4---4--|-4---4---4--|-4---4---4--|      \
                                                            (x2)
e|------------|------------|------------|------------|      /
B|------------|------------|------------|------------|     /
G|------------|------------|------------|------------|    /
D|------------|------------|------------|------------|   /
A|-------6---6|-------6---6|-------6---6|-------6---6|  /
E|4/7--7---7--|-7---7---7--|-7---7---7--|-7---7---7--| /

I grabbed hold of her wrist and my hands closed from tip to tip.
I said, you've taken the diet too far, you have got to let it slip
But she's not eating again, she's not eating again,
She's not eating again, she's not eating again,

e|------------|------------|------------|------------| 
B|------------|------------|------------|------------| 
G|------------|------------|------------|------------|   
D|------------|------------|------------|---1---1---1|    
A|-------2---2|-------2---2|---4---4---4|------------|     
E|-0---0---0--|-0---0---0--|-2---2---2--|-2---2---2--|  

I ask her to speak French and then I need her to translate,

e|------------|------------|------------|------------| 
B|------------|------------|------------|------------| 
G|------------|------------|------------|------------|   
D|------------|------------|------------|---4---4---4|    
A|-------4---4|-------4---4|---6---6---6|------------|     
E|-2---2---2--|-2---2---2--|-4---4---4--|-4---4---4--| 

I get the feeling she makes the meaning more significant.

e|------------|------------|------------|------------| 
B|------------|------------|------------|------------| 
G|------------|------------|------------|------------|   
D|------------|------------|------------|---4---4---4|    
A|-------2---2|-------2---2|---6---6---6|------------|     
E|-0---0---0--|-0---0---0--|-4---4---4--|-4---4---4--| 

She was always far too pretty for me to believe in a single

e|------------|------------|------------|------------| 
B|------------|------------|------------|------------| 
G|------------|------------|------------|------------|   
D|------------|------------|------------|---4---4---4|    
A|-------4---4|-------4---4|---6---6---6|------------|     
E|-2---2---2--|-2---2---2--|-4---4---4--|-4---4---4--| 

Word she said, believe a word she said.

e|------------|------------|------------|------------| 
B|------------|------------|------------|------------| 
G|------------|------------|------------|------------|   
D|-------4---4|-------4---4|------------|------------|    
A|---6--------|---6--------|---6---6---6|---6---6---6|     
E|-5---5---5--|-5---5---5--|-5---5---5--|-5---5---5--|


VERSE 1, pt.II (pretty much the same as the first part, only transposed one string higher):

e|------------|------------|------------|------------| \
B|------------|------------|------------|------------|  \
G|------------|------------|------------|------------|   \
D|-------2---2|-------2---2|-------2---2|-------2---2|    \
A|-4---4---4--|-4---4---4--|-4---4---4--|-4---4---4--|     \
E|------------|------------|------------|------------|      \
                                                            (x2)
e|------------|------------|------------|------------|      /
B|------------|------------|------------|------------|     /
G|------------|------------|------------|------------|    /
A|-------6---6|-------6---6|-------6---6|-------6---6|   /
E|4/7--7---7--|-7---7---7--|-7---7---7--|-7---7---7--|  /
E|------------|------------|------------|------------| /

At fourteen, her mother died in a routine operation from
Allergic reaction to a general anaesthetic,
Spent the rest of her teens experimenting with prescriptions in a
Futile attempt to know more than the doctors.

e|------------|------------|------------|------------| 
B|------------|------------|------------|------------| 
G|------------|------------|------------|---1---1---1|       
D|-------2---2|-------2---2|---4---4---4|------------|     
A|-0---0---0--|-0---0---0--|-2---2---2--|-2---2---2--|  
E|------------|------------|------------|------------|

She said one day to leave her, sand up to her

e|------------|------------|------------|------------| 
B|------------|------------|------------|------------|    
G|------------|------------|------------|---4---4---4|    
D|-------4---4|-------4---4|---6---6---6|------------|     
A|-2---2---2--|-2---2---2--|-4---4---4--|-4---4---4--| 
E|------------|------------|------------|------------|

Shoulders, waiting for the tide.

e|------------|------------|------------|------------| 
B|------------|------------|------------|------------| 
G|------------|------------|------------|---4---4---4|    
D|-------2---2|-------2---2|---6---6---6|------------|     
A|-0---0---0--|-0---0---0--|-4---4---4--|-4---4---4--| 
E|------------|------------|------------|------------|   

To drag her to the ocean, to another

e|------------|------------|------------|------------| 
B|------------|------------|------------|------------| 
G|------------|------------|------------|---4---4---4|    
D|-------4---4|-------4---4|---6---6---6|------------|     
A|-2---2---2--|-2---2---2--|-4---4---4--|-4---4---4--| 
E|------------|------------|------------|------------|   

Sea's shore, this thing hurts like hell.

e|------------|------------|------------|------------| 
B|------------|------------|------------|------------| 
G|------------|------------|------------|------------|   
D|-------4---4|-------4---4|------------|-------6-6-6|    
A|---6--------|---6--------|---6---6---6|-6-6-6-6-6-6|     
E|-5---5---5--|-5---5---5--|-4---4---4--|-4-4-4-4-4-4|

                            BUT WHAT DID YOU EXPECT?!

CHORUS 1 (try to play chords with the same rhytm and speed as the riffs to make 
the transition smoother):

e|-0-0-0-0-0-0|-0-0-0-0-0-0|-0-0-0-0-0-0|-0-0-0-0-0-0| 
B|-0-0-0-0-0-0|-0-0-0-0-0-0|-0-0-0-0-0-0|-0-0-0-0-0-0| 
G|-6-6-6-6-6-6|-6-6-6-6-6-6|-1-1-1-1-1-1|-1-1-1-1-1-1|   
D|-6-6-6-6-6-6|-6-6-6-6-6-6|-2-2-2-2-2-2|-2-2-2-2-2-2|    
A|-4-4-4-4-4-4|-4-4-4-4-4-4|-2-2-2-2-2-2|-2-2-2-2-2-2|     
E|------------|------------|-0-0-0-0-0-0|-0-0-0-0-0-0|

                                          All you

e|-0-0-0-0-0-0|-0-0-0-0-0-0|-0-0-0-0-0-0|-0-0-0-0-0-0| 
B|-0-0-0-0-0-0|-0-0-0-0-0-0|-0-0-0-0-0-0|-0-0-0-0-0-0| 
G|-2-2-2-2-2-2|-2-2-2-2-2-2|-1-1-1-1-1-1|-1-1-1-1-1-1|   
D|-2-2-2-2-2-2|-2-2-2-2-2-2|-2-2-2-2-2-2|-2-2-2-2-2-2|    
A|-0-0-0-0-0-0|-0-0-0-0-0-0|-2-2-2-2-2-2|-2-2-2-2-2-2|     
E|------------|------------|-0-0-0-0-0-0|-0-0-0-0-0-0|

  can   hear                      is the sound of your own heart.

e|-0-0-0-0-0-0|-0-0-0-0-0-0|-0-0-0-0-0-0|-0-0-0-0-0-0| 
B|-0-0-0-0-0-0|-0-0-0-0-0-0|-0-0-0-0-0-0|-0-0-0-0-0-0| 
G|-2-2-2-2-2-2|-2-2-2-2-2-2|-1-1-1-1-1-1|-1-1-1-1-1-1|   
D|-2-2-2-2-2-2|-2-2-2-2-2-2|-2-2-2-2-2-2|-2-2-2-2-2-2|    
A|-0-0-0-0-0-0|-0-0-0-0-0-0|-2-2-2-2-2-2|-2-2-2-2-2-2|     
E|------------|------------|-0-0-0-0-0-0|-0-0-0-0-0-0|

         And all you         can feel        is your

e|-0-0-0-0-0-0|-0-0-0-0-0-0|-0-0-0-0-0-0|-0-0-0-0-0-0| 
B|-0-0-0-0-0-0|-0-0-0-0-0-0|-0-0-0-0-0-0|-0-0-0-0-0-0| 
G|-2-2-2-2-2-2|-2-2-2-2-2-2|-2-2-2-2-2-2|-2-2-2-2-2-2|   
D|-4-4-4-4-4-4|-4-4-4-4-4-4|-2-2-2-2-2-2|-2-2-2-2-2-2|    
A|-4-4-4-4-4-4|-4-4-4-4-4-4|-0-0-0-0-0-0|-0-0-0-0-0-0|     
E|------------|------------|------------|------------|
 
  lungs flood                    and the blood course.

e|-0-0-0-0-0-0|-0-0-0-0-0-0|-0-0-0-0-0-0|-0-0-0-0-0-0| 
B|-0-0-0-0-0-0|-0-0-0-0-0-0|-0-0-0-0-0-0|-0-0-0-0-0-0| 
G|-6-6-6-6-6-6|-6-6-6-6-6-6|-1-1-1-1-1-1|-1-1-1-1-1-1|   
D|-6-6-6-6-6-6|-6-6-6-6-6-6|-2-2-2-2-2-2|-2-2-2-2-2-2|    
A|-4-4-4-4-4-4|-4-4-4-4-4-4|-2-2-2-2-2-2|-2-2-2-2-2-2|     
E|------------|------------|-0-0-0-0-0-0|-0-0-0-0-0-0|

                But oh, I   can see 

e|-0-0-0-0-0-0|-0-0-0-0-0-0|-0-0-0-0-0-0|-0-0-0-0-0-0| 
B|-0-0-0-0-0-0|-0-0-0-0-0-0|-0-0-0-0-0-0|-0-0-0-0-0-0| 
G|-2-2-2-2-2-2|-2-2-2-2-2-2|-1-1-1-1-1-1|-1-1-1-1-1-1|   
D|-2-2-2-2-2-2|-2-2-2-2-2-2|-2-2-2-2-2-2|-2-2-2-2-2-2|    
A|-0-0-0-0-0-0|-0-0-0-0-0-0|-2-2-2-2-2-2|-2-2-2-2-2-2|     
E|------------|------------|-0-0-0-0-0-0|-0-0-0-0-0-0|

   five hundred years dead  set ahead of me,

e|-0-0-0-0-0-0|-0-0-0-0-0-0|-0-0-0-0-0-0|-0-0-0-0-0-0| 
B|-0-0-0-0-0-0|-0-0-0-0-0-0|-0-0-0-0-0-0|-0-0-0-0-0-0| 
G|-2-2-2-2-2-2|-2-2-2-2-2-2|-1-1-1-1-1-1|-1-1-1-1-1-1|   
D|-2-2-2-2-2-2|-2-2-2-2-2-2|-2-2-2-2-2-2|-2-2-2-2-2-2|    
A|-0-0-0-0-0-0|-0-0-0-0-0-0|-2-2-2-2-2-2|-2-2-2-2-2-2|     
E|------------|------------|-0-0-0-0-0-0|-0-0-0-0-0-0|

          Five hundred      behind,

e|-0-0-0-0-0-0|-0-0-0-0-0-0|-0-0-0-0-0-0|-0-0-0-0-0-0| 
B|-0-0-0-0-0-0|-0-0-0-0-0-0|-0-0-0-0-0-0|-0-0-0-0-0-0| 
G|-2-2-2-2-2-2|-2-2-2-2-2-2|-2-2-2-2-2-2|-2-2-2-2-2-2|   
D|-4-4-4-4-4-4|-4-4-4-4-4-4|-2-2-2-2-2-2|-2-2-2-2-2-2|    
A|-4-4-4-4-4-4|-4-4-4-4-4-4|-0-0-0-0-0-0|-0-0-0-0-0-0|     
E|------------|------------|------------|------------|

a thousand    years      in perfect     symmetry.


VERSE 2, pt.I (the same as the 1st): 

e|------------|------------|------------|------------| \
B|------------|------------|------------|------------|  \
G|------------|------------|------------|------------|   \
D|------------|------------|------------|------------|    \
A|-------2---2|-------2---2|-------2---2|-------2---2|     \
E|-4---4---4--|-4---4---4--|-4---4---4--|-4---4---4--|      \
                                                            (x2)
e|------------|------------|------------|------------|      /
B|------------|------------|------------|------------|     /
G|------------|------------|------------|------------|    /
D|------------|------------|------------|------------|   /
A|-------6---6|-------6---6|-------6---6|-------6---6|  /
E|4/7--7---7--|-7---7---7--|-7---7---7--|-7---7---7--| /


e|------------|------------|------------|------------| 
B|------------|------------|------------|------------| 
G|------------|------------|------------|------------|   
D|------------|------------|------------|---1---1---1|    
A|-------2---2|-------2---2|---4---4---4|------------|     
E|-0---0---0--|-0---0---0--|-2---2---2--|-2---2---2--|  

Best known left wrist right finger, through all the southern states.

e|------------|------------|------------|------------| 
B|------------|------------|------------|------------| 
G|------------|------------|------------|------------|   
D|------------|------------|------------|---4---4---4|    
A|-------4---4|-------4---4|---6---6---6|------------|     
E|-2---2---2--|-2---2---2--|-4---4---4--|-4---4---4--| 

On every video games machine they call her triple a.

e|------------|------------|------------|------------| 
B|------------|------------|------------|------------| 
G|------------|------------|------------|------------|   
D|------------|------------|------------|---4---4---4|    
A|-------2---2|-------2---2|---6---6---6|------------|     
E|-0---0---0--|-0---0---0--|-4---4---4--|-4---4---4--| 

They were racists on the radio, trying to give up smoking.

e|------------|------------|------------|------------| 
B|------------|------------|------------|------------| 
G|------------|------------|------------|------------|   
D|------------|------------|------------|---4---4---4|    
A|-------4---4|-------4---4|---6---6---6|------------|     
E|-2---2---2--|-2---2---2--|-4---4---4--|-4---4---4--| 

The chat show host, he joked "you have to wait for the government program".

e|------------|------------|------------|------------| 
B|------------|------------|------------|------------| 
G|------------|------------|------------|------------|   
D|-------4---4|-------4---4|------------|------------|    
A|---6--------|---6--------|---6---6---6|---6---6---6|     
E|-5---5---5--|-5---5---5--|-5---5---5--|-5---5---5--|

You talk about your politics and I wonder if you could be one of them.


VERSE 1, pt.II (the only difference from the 1st is at the end):

e|------------|------------|------------|------------| \
B|------------|------------|------------|------------|  \
G|------------|------------|------------|------------|   \
D|-------2---2|-------2---2|-------2---2|-------2---2|    \
A|-4---4---4--|-4---4---4--|-4---4---4--|-4---4---4--|     \
E|------------|------------|------------|------------|      \
                                                            (x2)
e|------------|------------|------------|------------|      /
B|------------|------------|------------|------------|     /
G|------------|------------|------------|------------|    /
A|-------6---6|-------6---6|-------6---6|-------6---6|   /
E|4/7--7---7--|-7---7---7--|-7---7---7--|-7---7---7--|  /
E|------------|------------|------------|------------| /

But you could never kiss a tory boy without wanting to cut off your tongue again.
A good place to look at the future is when you are sat at the sea,
With the salt up to your ankles and a view of the end of the pier
You may look down at your model's feet and wish that you'd just float away.

e|------------|------------|------------|------------| 
B|------------|------------|------------|------------| 
G|------------|------------|------------|---1---1---1|       
D|-------2---2|-------2---2|---4---4---4|------------|     
A|-0---0---0--|-0---0---0--|-2---2---2--|-2---2---2--|  
E|------------|------------|------------|------------|

And the weather here is overcast and the sea is the same shade of gray.

e|------------|------------|------------|------------| 
B|------------|------------|------------|------------|    
G|------------|------------|------------|---4---4---4|    
D|-------4---4|-------4---4|---6---6---6|------------|     
A|-2---2---2--|-2---2---2--|-4---4---4--|-4---4---4--| 
E|------------|------------|------------|------------|

So the landscape before you looks just like the edge of the world.

e|------------|------------|------------|------------| 
B|------------|------------|------------|------------| 
G|------------|------------|------------|---4---4---4|    
D|-------2---2|-------2---2|---6---6---6|------------|     
A|-0---0---0--|-0---0---0--|-4---4---4--|-4---4---4--| 
E|------------|------------|------------|------------|   

But to the left side and the right side, either way is a crazy golf course.

e|------------|------------|------------|------------| 
B|------------|------------|------------|------------| 
G|------------|------------|------------|---4---4---4|    
D|-------4---4|-------4---4|---6---6---6|------------|     
A|-2---2---2--|-2---2---2--|-4---4---4--|-4---4---4--| 
E|------------|------------|------------|------------|
   
The sea is (The sea is) a good place 

e|------------|------------|------------|------------| 
B|------------|------------|------------|------------| 
G|------------|------------|------------|-------6-6-6|    
D|-------2---2|-------2---2|---6---6---6|-6-6-6-6-6-6|     
A|-0---0---0--|-0---0---0--|-4---4---4--|-4-4-4-4-4-4| 
E|------------|------------|------------|------------|

(A good height) To think of (To think about the future)

CHORUS 2:

e|-0-0-0-0-0-0|-0-0-0-0-0-0|-0-0-0-0-0-0|-0-0-0-0-0-0| 
B|-0-0-0-0-0-0|-0-0-0-0-0-0|-0-0-0-0-0-0|-0-0-0-0-0-0| 
G|-6-6-6-6-6-6|-6-6-6-6-6-6|-1-1-1-1-1-1|-1-1-1-1-1-1|   
D|-6-6-6-6-6-6|-6-6-6-6-6-6|-2-2-2-2-2-2|-2-2-2-2-2-2|    
A|-4-4-4-4-4-4|-4-4-4-4-4-4|-2-2-2-2-2-2|-2-2-2-2-2-2|     
E|------------|------------|-0-0-0-0-0-0|-0-0-0-0-0-0|

                                          All you

e|-0-0-0-0-0-0|-0-0-0-0-0-0|-0-0-0-0-0-0|-0-0-0-0-0-0| 
B|-0-0-0-0-0-0|-0-0-0-0-0-0|-0-0-0-0-0-0|-0-0-0-0-0-0| 
G|-2-2-2-2-2-2|-2-2-2-2-2-2|-1-1-1-1-1-1|-1-1-1-1-1-1|   
D|-2-2-2-2-2-2|-2-2-2-2-2-2|-2-2-2-2-2-2|-2-2-2-2-2-2|    
A|-0-0-0-0-0-0|-0-0-0-0-0-0|-2-2-2-2-2-2|-2-2-2-2-2-2|     
E|------------|------------|-0-0-0-0-0-0|-0-0-0-0-0-0|

  can   hear                      is the sound of your own heart.

e|-0-0-0-0-0-0|-0-0-0-0-0-0|-0-0-0-0-0-0|-0-0-0-0-0-0| 
B|-0-0-0-0-0-0|-0-0-0-0-0-0|-0-0-0-0-0-0|-0-0-0-0-0-0| 
G|-2-2-2-2-2-2|-2-2-2-2-2-2|-1-1-1-1-1-1|-1-1-1-1-1-1|   
D|-2-2-2-2-2-2|-2-2-2-2-2-2|-2-2-2-2-2-2|-2-2-2-2-2-2|    
A|-0-0-0-0-0-0|-0-0-0-0-0-0|-2-2-2-2-2-2|-2-2-2-2-2-2|     
E|------------|------------|-0-0-0-0-0-0|-0-0-0-0-0-0|

         And all you         can feel        is your

e|-0-0-0-0-0-0|-0-0-0-0-0-0|-0-0-0-0-0-0|-0-0-0-0-0-0| 
B|-0-0-0-0-0-0|-0-0-0-0-0-0|-0-0-0-0-0-0|-0-0-0-0-0-0| 
G|-2-2-2-2-2-2|-2-2-2-2-2-2|-2-2-2-2-2-2|-2-2-2-2-2-2|   
D|-4-4-4-4-4-4|-4-4-4-4-4-4|-2-2-2-2-2-2|-2-2-2-2-2-2|    
A|-4-4-4-4-4-4|-4-4-4-4-4-4|-0-0-0-0-0-0|-0-0-0-0-0-0|     
E|------------|------------|------------|------------|
 
  lungs flood                    and the blood course.

e|-0-0-0-0-0-0|-0-0-0-0-0-0|-0-0-0-0-0-0|-0-0-0-0-0-0| 
B|-0-0-0-0-0-0|-0-0-0-0-0-0|-0-0-0-0-0-0|-0-0-0-0-0-0| 
G|-6-6-6-6-6-6|-6-6-6-6-6-6|-1-1-1-1-1-1|-1-1-1-1-1-1|   
D|-6-6-6-6-6-6|-6-6-6-6-6-6|-2-2-2-2-2-2|-2-2-2-2-2-2|    
A|-4-4-4-4-4-4|-4-4-4-4-4-4|-2-2-2-2-2-2|-2-2-2-2-2-2|     
E|------------|------------|-0-0-0-0-0-0|-0-0-0-0-0-0|

                But oh, I   can see 

e|-0-0-0-0-0-0|-0-0-0-0-0-0|-0-0-0-0-0-0|-0-0-0-0-0-0| 
B|-0-0-0-0-0-0|-0-0-0-0-0-0|-0-0-0-0-0-0|-0-0-0-0-0-0| 
G|-2-2-2-2-2-2|-2-2-2-2-2-2|-1-1-1-1-1-1|-1-1-1-1-1-1|   
D|-2-2-2-2-2-2|-2-2-2-2-2-2|-2-2-2-2-2-2|-2-2-2-2-2-2|    
A|-0-0-0-0-0-0|-0-0-0-0-0-0|-2-2-2-2-2-2|-2-2-2-2-2-2|     
E|------------|------------|-0-0-0-0-0-0|-0-0-0-0-0-0|

   five hundred years dead  set ahead of me,

e|-0-0-0-0-0-0|-0-0-0-0-0-0|-0-0-0-0-0-0|-0-0-0-0-0-0| 
B|-0-0-0-0-0-0|-0-0-0-0-0-0|-0-0-0-0-0-0|-0-0-0-0-0-0| 
G|-2-2-2-2-2-2|-2-2-2-2-2-2|-1-1-1-1-1-1|-1-1-1-1-1-1|   
D|-2-2-2-2-2-2|-2-2-2-2-2-2|-2-2-2-2-2-2|-2-2-2-2-2-2|    
A|-0-0-0-0-0-0|-0-0-0-0-0-0|-2-2-2-2-2-2|-2-2-2-2-2-2|     
E|------------|------------|-0-0-0-0-0-0|-0-0-0-0-0-0|

          Five hundred      behind,

e|-0-0-0-0-0-0|-0-0-0-0-0-0|-0-0-0-0-0-0|-0-0-0-0-0-0| 
B|-0-0-0-0-0-0|-0-0-0-0-0-0|-0-0-0-0-0-0|-0-0-0-0-0-0| 
G|-2-2-2-2-2-2|-2-2-2-2-2-2|-2-2-2-2-2-2|-2-2-2-2-2-2|   
D|-4-4-4-4-4-4|-4-4-4-4-4-4|-2-2-2-2-2-2|-2-2-2-2-2-2|    
A|-4-4-4-4-4-4|-4-4-4-4-4-4|-0-0-0-0-0-0|-0-0-0-0-0-0|     
E|------------|------------|------------|------------|

a thousand    years      in perfect     symmetry.

e|-0-0-0-0-0-0|-0-0-0-0-0-0|-0-0-0-0-0-0|-0-0-0-0-0-0| 
B|-0-0-0-0-0-0|-0-0-0-0-0-0|-0-0-0-0-0-0|-0-0-0-0-0-0| 
G|-2-2-2-2-2-2|-2-2-2-2-2-2|-2-2-2-2-2-2|-2-2-2-2-2-2|   
D|-4-4-4-4-4-4|-4-4-4-4-4-4|-2-2-2-2-2-2|-2-2-2-2-2-2|    
A|-4-4-4-4-4-4|-4-4-4-4-4-4|-0-0-0-0-0-0|-0-0-0-0-0-0|     
E|------------|------------|------------|------------|

A thousand    years,    no getting      rid of me.

e|-0-0-0-0-0-0|-0-0-0-0-0-0|-0-0-0-0-0-0|-0-0-0-0-0-0| 
B|-0-0-0-0-0-0|-0-0-0-0-0-0|-0-0-0-0-0-0|-0-0-0-0-0-0| 
G|-2-2-2-2-2-2|-2-2-2-2-2-2|-2-2-2-2-2-2|-2-2-2-2-2-2|   
D|-4-4-4-4-4-4|-4-4-4-4-4-4|-2-2-2-2-2-2|-2-2-2-2-2-2|    
A|-4-4-4-4-4-4|-4-4-4-4-4-4|-0-0-0-0-0-0|-0-0-0-0-0-0|     
E|------------|------------|------------|------------|

A thousand    years      in perfect    symmetry.

e|-0~---------| 
B|-0~---------| 
G|-1~---------|   
D|-2~---------|    
A|-2~---------|     
E|-0~---------|

That's all. Have fun with this song!





Comments


Popular Los Campesinos tabs & chords
It Started With A Mixx Bass Tabs
Broken Heartbeats Sound Like Break Beats Chords
Knee Deep At Atp Chords
Sweet Dreams Sweet Cheeks Chords
To Tundra 1 Chords
We Are All Accelerated Readers Chords
Death To Los Campesinos Tabs
The Sea Is A Good Place To Think Of The Future Tabs
You! Me! Dancing! 1 Tabs
Broken Heartbeats Sound Like Break Beats Ukulele


Song lyrics



↑ Back to top | Tablatures and chords are parodies/interpretations of the original songs. You may use it for private study, scholarship, research or language learning purposes only
© 2014 AZChords.com Contact us | Privacy policy | DMCA | Add/correct tabs | Request tabs | Top 50 tabs