>
 >
The Sea Is A Good Place To Think Of The Future

The Sea Is A Good Place To Think Of The Future Guitar Tabs

Los Campesinos - The Sea Is A Good Place To Think Of The Future chords, tabs, tablatures, lyrics

Guitar lessons | Add/correct | Request | Top 50 tabs Artists:  A B C D E F G H I J K L M N O P Q R S T U V W X Y Z 0-9

The Sea Is A Good Place To Think Of The Future Guitar Tabs – Los Campesinos

CD, Sheet music, Poster

Do you like The Sea Is A Good Place To Think Of The Future? Share with your friends now
ChordsTabsTabs v2Tabs v3Ukulele
THE SEA IS A GOOD PLACE TO THINK OF THE FUTURE
LOS CAMPESINOS
ROMANCE IS BORING (2010)



Lead & Rhythm Guitar Tuning: STANDARD

one. I made this tab by listening to teh song, alot and carefully. There are lots of parts
that sound like they could be guitar but I am pretty sure they are other instruments.


Note: * means play quietly.

|----------------------------------------------------------------------------|


***GUITAR I***

(0:00) INTRO
e||-----------|-----------|-----------|-----------|
B||-----------|-----------|-----------|-----------|
G||-----------|-----------|-----------|-----------|
D||-----------|-----------|-----------|-----------|
A||------2---2|------2---2|------2---2|------2---2|
E||4-4-4---4--|4-4-4---4--|4-4-4---4--|4-4-4---4--|
   1 & 2 & 3 & 1 & 2 & 3 & 1 & 2 & 3 & 1 & 2 & 3 &
               * * *       * * *       * * *

e||-----------|-----------|-----------|-------------|
B||-----------|-----------|-----------|-------------|
G||-----------|-----------|-----------|-------------|
D||-----------|-----------|-----------|-------------|
A||------6---6|------6---6|------6---6|------6------|
E||4/7-7---7--|7-7-7---7--|7-7-7---7---|7-7-7---7-7/|
   1 & 2 & 3 & 1 & 2 & 3 & 1 & 2 & 3 & 1 & 2 & 3 &
               * * *       * * *       * * *

e||-----------|-----------|-----------|-----------|
B||-----------|-----------|-----------|-----------|
G||-----------|-----------|-----------|-----------|
D||-----------|-----------|-----------|-----------|
A||------2---2|------2---2|------2---2|------2---2|
E||/-4-4---4--|4-4-4---4--|4-4-4---4--|4-4-4---4--|
   1 & 2 & 3 & 1 & 2 & 3 & 1 & 2 & 3 & 1 & 2 & 3 &
       *       * * *       * * *       * * *

e||-----------|-----------|-----------|-----------|
B||-----------|-----------|-----------|-----------|
G||-----------|-----------|-----------|-----------|
D||-----------|-----------|-----------|-----------|
A||------6---6|------6---6|------6---6|------6---6|
E||4/7-7---7--|7-7-7---7--|7-7-7---7---|7-7-7--7--|
   1 & 2 & 3 & 1 & 2 & 3 & 1 & 2 & 3 & 1 & 2 & 3 &
       *       * * *       * * *       * * *

e||-----------|-----------|-----------|-----------|
B||-----------|-----------|-----------|-----------|
G||-----------|-----------|-----------|-----------|
D||-----------|-----------|-----------|------1----|
A||------2---2|------2---2|-4----4----|-4--------4|
E||0 0-0---0--|0-0-0---0--|2-2-2---2-2|2-2-2---2--|
   1 & 2 & 3 & 1 & 2 & 3 & 1 & 2 & 3 & 1 & 2 & 3 &
   * * *       * * *       * * *       * * *


e||-----------|-----------|-----------|-----------|
B||-----------|-----------|-----------|-----------|
G||-----------|-----------|-----------|-----------|
D||-----------|-----------|-----------|--4---4----|
A||------4---4|------4---4|---6---6---|-----------|
E||2-2-2---2--|2-2-2---2--|4---4---4-4|4---4---4-4|
   1 & 2 & 3 & 1 & 2 & 3 & 1 & 2 & 3 & 1 & 2 & 3 &
   * * *       * * *

e||-----------|-----------|-----------|-----------|
B||-----------|-----------|-----------|-----------|
G||-----------|-----------|-----------|-----------|
D||-----------|-----------|-----------|--4---4----|
A||------2---2|------2---2|--6---6----|-----------|
E||0-0-0---0--|0-0-0---0--|4---4---4-4|4---4---4-4|
   1 & 2 & 3 & 1 & 2 & 3 & 1 & 2 & 3 & 1 & 2 & 3 &
   * * *       * * *

e||-----------|-----------|-----------|-----------|
B||-----------|-----------|-----------|-----------|
G||-----------|-----------|-----------|-----------|
D||-----------|-----------|-----------|--4---4----|
A||------4---4|------4---4|---6---6---|-----------|
E||2-2-2---2--|2-2-2---2--|4---4---4-4|4---4---4-4|
   1 & 2 & 3 & 1 & 2 & 3 & 1 & 2 & 3 & 1 & 2 & 3 &
   * * *       * * *

e||-----------|-----------|-----------|-----------|
B||-----------|-----------|-----------|-----------|
G||-----------|-----------|-----------|-----------|
D||------4-4-4|------4-4-4|-----------|-----------|
A||--6--------|--6--------|--6---6-6-6|--6---6-6-6|
E||5---5------|5---5------|4---4------|4---4------|
   1 & 2 & 3 & 1 & 2 & 3 & 1 & 2 & 3 & 1 & 2 & 3 &


(0:36) VERSE

e||-----------|-----------|-----------|-----------|
B||-----------|-----------|-----------|-----------|
G||-----------|-----------|-----------|-----------|
D||-----------|-----------|-----------|-----------|
A||------2---2|------2---2|------2---2|------2---2|
E||4-4-4---4--|4-4-4---4--|4-4-4---4--|4-4-4---4--|
   1 & 2 & 3 & 1 & 2 & 3 & 1 & 2 & 3 & 1 & 2 & 3 &
               * * *       * * *       * * *

e||-----------|-----------|-----------|-------------|
B||-----------|-----------|-----------|-------------|
G||-----------|-----------|-----------|-------------|
D||-----------|-----------|-----------|-------------|
A||------6---6|------6---6|------6---6|------6------|
E||4/7-7---7--|7-7-7---7--|7-7-7---7---|7-7-7---7-7/|
   1 & 2 & 3 & 1 & 2 & 3 & 1 & 2 & 3 & 1 & 2 & 3 &
               * * *       * * *       * * *

e||-----------|-----------|-----------|-----------|
B||-----------|-----------|-----------|-----------|
G||-----------|-----------|-----------|-----------|
D||-----------|-----------|-----------|-----------|
A||------2---2|------2---2|------2---2|------2---2|
E||/-4-4---4--|4-4-4---4--|4-4-4---4--|4-4-4---4--|
   1 & 2 & 3 & 1 & 2 & 3 & 1 & 2 & 3 & 1 & 2 & 3 &
       *       * * *       * * *       * * *

e||-----------|-----------|-----------|-----------|
B||-----------|-----------|-----------|-----------|
G||-----------|-----------|-----------|-----------|
D||-----------|-----------|-----------|-----------|
A||------6---6|------6---6|------6---6|------6---6|
E||4/7-7---7--|7-7-7---7--|7-7-7---7---|7-7-7--7--|
   1 & 2 & 3 & 1 & 2 & 3 & 1 & 2 & 3 & 1 & 2 & 3 &
       *       * * *       * * *       * * *

e||-----------|-----------|-----------|-----------|
B||-----------|-----------|-----------|-----------|
G||-----------|-----------|-----------|-----------|
D||-----------|-----------|-----------|------1----|
A||------2---2|------2---2|-4----4----|-4--------4|
E||0 0-0---0--|0-0-0---0--|2-2-2---2-2|2-2-2---2--|
   1 & 2 & 3 & 1 & 2 & 3 & 1 & 2 & 3 & 1 & 2 & 3 &
   * * *       * * *       * * *       * * *


e||-----------|-----------|-----------|-----------|
B||-----------|-----------|-----------|-----------|
G||-----------|-----------|-----------|-----------|
D||-----------|-----------|-----------|--4---4----|
A||------4---4|------4---4|---6---6---|-----------|
E||2-2-2---2--|2-2-2---2--|4---4---4-4|4---4---4-4|
   1 & 2 & 3 & 1 & 2 & 3 & 1 & 2 & 3 & 1 & 2 & 3 &
   * * *       * * *

e||-----------|-----------|-----------|-----------|
B||-----------|-----------|-----------|-----------|
G||-----------|-----------|-----------|-----------|
D||-----------|-----------|-----------|--4---4----|
A||------2---2|------2---2|--6---6----|-----------|
E||0-0-0---0--|0-0-0---0--|4---4---4-4|4---4---4-4|
   1 & 2 & 3 & 1 & 2 & 3 & 1 & 2 & 3 & 1 & 2 & 3 &
   * * *       * * *

e||-----------|-----------|-----------|-----------|
B||-----------|-----------|-----------|-----------|
G||-----------|-----------|-----------|-----------|
D||-----------|-----------|-----------|--4---4----|
A||------4---4|------4---4|---6---6---|-----------|
E||2-2-2---2--|2-2-2---2--|4---4---4-4|4---4---4-4|
   1 & 2 & 3 & 1 & 2 & 3 & 1 & 2 & 3 & 1 & 2 & 3 &
   * * *       * * *

e||-----------|-----------|-----------|-----------|
B||-----------|-----------|-----------|-----------|
G||-----------|-----------|-----------|-----------|
D||------4-4-4|------4-4-4|-----------|-----------|
A||--6--------|--6--------|--6---6-6-6|--6---6-6-6|
E||5---5------|5---5------|4---4------|4---4------|
   1 & 2 & 3 & 1 & 2 & 3 & 1 & 2 & 3 & 1 & 2 & 3 &

e||-----------|-----------|-----------|-----------|
B||-----------|-----------|-----------|-----------|
G||-----------|-----------|-----------|-----------|
D||-----------|-----------|-----------|-----------|
A||------2---2|------2---2|------2---2|------2---2|
E||4-4-4---4--|4-4-4---4--|4-4-4---4--|4-4-4---4--|
   1 & 2 & 3 & 1 & 2 & 3 & 1 & 2 & 3 & 1 & 2 & 3 &
               * * *       * * *       * * *

e||-----------|-----------|-----------|-------------|
B||-----------|-----------|-----------|-------------|
G||-----------|-----------|-----------|-------------|
D||-----------|-----------|-----------|-------------|
A||------6---6|------6---6|------6---6|------6------|
E||4/7-7---7--|7-7-7---7--|7-7-7---7---|7-7-7---7-7/|
   1 & 2 & 3 & 1 & 2 & 3 & 1 & 2 & 3 & 1 & 2 & 3 &
               * * *       * * *       * * *

e||-----------|-----------|-----------|-----------|
B||-----------|-----------|-----------|-----------|
G||-----------|-----------|-----------|-----------|
D||-----------|-----------|-----------|-----------|
A||------2---2|------2---2|------2---2|------2---2|
E||/-4-4---4--|4-4-4---4--|4-4-4---4--|4-4-4---4--|
   1 & 2 & 3 & 1 & 2 & 3 & 1 & 2 & 3 & 1 & 2 & 3 &
       *       * * *       * * *       * * *

e||-----------|-----------|-----------|-----------|
B||-----------|-----------|-----------|-----------|
G||-----------|-----------|-----------|-----------|
D||-----------|-----------|-----------|-----------|
A||------6---6|------6---6|------6---6|------6---6|
E||4/7-7---7--|7-7-7---7--|7-7-7---7---|7-7-7--7--|
   1 & 2 & 3 & 1 & 2 & 3 & 1 & 2 & 3 & 1 & 2 & 3 &
       *       * * *       * * *       * * *

(1:28) PRE-CHORUS

e||-----------|-----------|-----------|-----------|
B||-----------|-----------|-----------|-----------|
G||-----------|-----------|-----------|-----------|
D||-----------|-----------|-----------|------1----|
A||------2---2|------2---2|-4----4----|-4--------4|
E||0 0-0---0--|0-0-0---0--|2-2-2---2-2|2-2-2---2--|
   1 & 2 & 3 & 1 & 2 & 3 & 1 & 2 & 3 & 1 & 2 & 3 &
   * * *       * * *       * * *       * * *


e||-----------|-----------|-----------|-----------|
B||-----------|-----------|-----------|-----------|
G||-----------|-----------|-----------|-----------|
D||-----------|-----------|-----------|--4---4----|
A||------4---4|------4---4|---6---6---|-----------|
E||2-2-2---2--|2-2-2---2--|4---4---4-4|4---4---4-4|
   1 & 2 & 3 & 1 & 2 & 3 & 1 & 2 & 3 & 1 & 2 & 3 &
   * * *       * * *

e||-----------|-----------|-----------|-----------|
B||-----------|-----------|-----------|-----------|
G||-----------|-----------|-----------|-----------|
D||-----------|-----------|-----------|--4---4----|
A||------2---2|------2---2|--6---6----|-----------|
E||0-0-0---0--|0-0-0---0--|4---4---4-4|4---4---4-4|
   1 & 2 & 3 & 1 & 2 & 3 & 1 & 2 & 3 & 1 & 2 & 3 &
   * * *       * * *

e||-----------|-----------|-----------|-----------|
B||-----------|-----------|-----------|-----------|
G||-----------|-----------|-----------|-----------|
D||-----------|-----------|-----------|--4---4----|
A||------4---4|------4---4|---6---6---|-----------|
E||2-2-2---2--|2-2-2---2--|4---4---4-4|4---4---4-4|
   1 & 2 & 3 & 1 & 2 & 3 & 1 & 2 & 3 & 1 & 2 & 3 &
   * * *       * * *

e||-----------|-----------|-----------|-----------|
B||-----------|-----------|-----------|-----------|
G||-----------|-----------|-----------|-----------|
D||------4-4-4|------4-4-4|-----------|-----------|
A||--6--------|--6--------|--6---6-6-6|--6---6-6-6|
E||5---5------|5---5------|4---4------|4---4------|
   1 & 2 & 3 & 1 & 2 & 3 & 1 & 2 & 3 & 1 & 2 & 3 &


(1:48) CHORUS (For this part it is confusing to pick out the notes so I just put chords
that sound good with it.)(x4)

e||4-4-4-4-4-4-4-4|4-4-4-4-4-4-4-4|5-5-5-5-5-5-5-5|5-5-5-5-5-5-5-5-5|
B||5-5-5-5-5-5-5-5|5-5-5-5-5-5-5-5|5-5-5-5-5-5-5-5|5-5-5-5-5-5-5-5-5|
G||6-6-6-6-6-6-6-6|4-4-4-4-4-4-4-4|6-6-6-6-6-6-6-6|6-6-6-6-6-6-6-6-6|
D||6-6-6-6-6-6-6-6|6-6-6-6-6-6-6-6|7-7-7-7-7-7-7-7|7-7-7-7-7-7-7-7-7|
A||4-4-4-4-4-4-4-4|7-7-7-7-7-7-7-7|---------------|-----------------|
E||4-4-4-4-4-4-4-4|4-4-4-4-4-4-4-4|---------------|-----------------|
   1 & 2 & 3 & 4 & 1 & 2 & 3 & 4 & 1 & 2 & 3 & 4 & 1 & 2 & 3 & 4 &



(2:20) POST-CHORUS

e||-----------|-----------|-----------|-----------|
B||-----------|-----------|-----------|-----------|
G||-----------|-----------|-----------|-----------|
D||-----------|-----------|-----------|-----------|
A||------2---2|------2---2|------2---2|------2---2|
E||4-4-4---4--|4-4-4---4--|4-4-4---4--|4-4-4---4--|
   1 & 2 & 3 & 1 & 2 & 3 & 1 & 2 & 3 & 1 & 2 & 3 &
   * * *       * * *       * * *       * * *

e||-----------|-----------|-----------|-------------|
B||-----------|-----------|-----------|-------------|
G||-----------|-----------|-----------|-------------|
D||-----------|-----------|-----------|-------------|
A||------6---6|------6---6|------6---6|------6------|
E||4/7-7---7--|7-7-7---7--|7-7-7---7---|7-7-7---7-7/|
   1 & 2 & 3 & 1 & 2 & 3 & 1 & 2 & 3 & 1 & 2 & 3 &
   * * *       * * *       * * *       * * *

e||-----------|-----------|-----------|-----------|
B||-----------|-----------|-----------|-----------|
G||-----------|-----------|-----------|-----------|
D||-----------|-----------|-----------|-----------|
A||------2---2|------2---2|------2---2|------2---2|
E||/-4-4---4--|4-4-4---4--|4-4-4---4--|4-4-4---4--|
   1 & 2 & 3 & 1 & 2 & 3 & 1 & 2 & 3 & 1 & 2 & 3 &
     * *       * * *       * * *       * * *

e||-----------|-----------|-----------|-----------|
B||-----------|-----------|-----------|-----------|
G||-----------|-----------|-----------|-----------|
D||-----------|-----------|-----------|-----------|
A||------6---6|------6---6|------6---6|------6---6|
E||4/7-7---7--|7-7-7---7--|7-7-7---7---|7-7-7--7--|
   1 & 2 & 3 & 1 & 2 & 3 & 1 & 2 & 3 & 1 & 2 & 3 &
   * * *       * * *       * * *       * * *

(2:35) VERSE

e||-----------|-----------|-----------|-----------|
B||-----------|-----------|-----------|-----------|
G||-----------|-----------|-----------|-----------|
D||-----------|-----------|-----------|------1----|
A||------2---2|------2---2|-4----4----|-4--------4|
E||0 0-0---0--|0-0-0---0--|2-2-2---2-2|2-2-2---2--|
   1 & 2 & 3 & 1 & 2 & 3 & 1 & 2 & 3 & 1 & 2 & 3 &
   * * *       * * *       * * *       * * *


e||-----------|-----------|-----------|-----------|
B||-----------|-----------|-----------|-----------|
G||-----------|-----------|-----------|-----------|
D||-----------|-----------|-----------|--4---4----|
A||------4---4|------4---4|---6---6---|-----------|
E||2-2-2---2--|2-2-2---2--|4---4---4-4|4---4---4-4|
   1 & 2 & 3 & 1 & 2 & 3 & 1 & 2 & 3 & 1 & 2 & 3 &
   * * *       * * *

e||-----------|-----------|-----------|-----------|
B||-----------|-----------|-----------|-----------|
G||-----------|-----------|-----------|-----------|
D||-----------|-----------|-----------|--4---4----|
A||------2---2|------2---2|--6---6----|-----------|
E||0-0-0---0--|0-0-0---0--|4---4---4-4|4---4---4-4|
   1 & 2 & 3 & 1 & 2 & 3 & 1 & 2 & 3 & 1 & 2 & 3 &
   * * *       * * *

e||-----------|-----------|-----------|-----------|
B||-----------|-----------|-----------|-----------|
G||-----------|-----------|-----------|-----------|
D||-----------|-----------|-----------|--4---4----|
A||------4---4|------4---4|---6---6---|-----------|
E||2-2-2---2--|2-2-2---2--|4---4---4-4|4---4---4-4|
   1 & 2 & 3 & 1 & 2 & 3 & 1 & 2 & 3 & 1 & 2 & 3 &
   * * *       * * *

e||-----------|-----------|-----------|-----------|
B||-----------|-----------|-----------|-----------|
G||-----------|-----------|-----------|-----------|
D||------4-4-4|------4-4-4|-----------|-----------|
A||--6--------|--6--------|--6---6-6-6|--6---6-6-6|
E||5---5------|5---5------|4---4------|4---4------|
   1 & 2 & 3 & 1 & 2 & 3 & 1 & 2 & 3 & 1 & 2 & 3 &

e||-----------|-----------|-----------|-----------|
B||-----------|-----------|-----------|-----------|
G||-----------|-----------|-----------|-----------|
D||-----------|-----------|-----------|-----------|
A||------2---2|------2---2|------2---2|------2---2|
E||4-4-4---4--|4-4-4---4--|4-4-4---4--|4-4-4---4--|
   1 & 2 & 3 & 1 & 2 & 3 & 1 & 2 & 3 & 1 & 2 & 3 &
   * * *       * * *       * * *       * * *

e||-----------|-----------|-----------|-------------|
B||-----------|-----------|-----------|-------------|
G||-----------|-----------|-----------|-------------|
D||-----------|-----------|-----------|-------------|
A||------6---6|------6---6|------6---6|------6------|
E||4/7-7---7--|7-7-7---7--|7-7-7---7---|7-7-7---7-7/|
   1 & 2 & 3 & 1 & 2 & 3 & 1 & 2 & 3 & 1 & 2 & 3 &
   * * *       * * *       * * *       * * *

e||-----------|-----------|-----------|-----------|
B||-----------|-----------|-----------|-----------|
G||-----------|-----------|-----------|-----------|
D||-----------|-----------|-----------|-----------|
A||------2---2|------2---2|------2---2|------2---2|
E||/-4-4---4--|4-4-4---4--|4-4-4---4--|4-4-4---4--|
   1 & 2 & 3 & 1 & 2 & 3 & 1 & 2 & 3 & 1 & 2 & 3 &
     * *       * * *       * * *       * * *

e||-----------|-----------|-----------|-----------|
B||-----------|-----------|-----------|-----------|
G||-----------|-----------|-----------|-----------|
D||-----------|-----------|-----------|-----------|
A||------6---6|------6---6|------6---6|------6---6|
E||4/7-7---7--|7-7-7---7--|7-7-7---7---|7-7-7--7--|
   1 & 2 & 3 & 1 & 2 & 3 & 1 & 2 & 3 & 1 & 2 & 3 &
   * * *       * * *       * * *       * * *

e||-----------|-----------|-----------|-----------|
B||-----------|-----------|-----------|-----------|
G||-----------|-----------|-----------|-----------|
D||-----------|-----------|-----------|------1----|
A||------2---2|------2---2|-4----4----|-4--------4|
E||0 0-0---0--|0-0-0---0--|2-2-2---2-2|2-2-2---2--|
   1 & 2 & 3 & 1 & 2 & 3 & 1 & 2 & 3 & 1 & 2 & 3 &
   * * *       * * *       * * *       * * *


e||-----------|-----------|-----------|-----------|
B||-----------|-----------|-----------|-----------|
G||-----------|-----------|-----------|-----------|
D||-----------|-----------|-----------|--4---4----|
A||------4---4|------4---4|---6---6---|-----------|
E||2-2-2---2--|2-2-2---2--|4---4---4-4|4---4---4-4|
   1 & 2 & 3 & 1 & 2 & 3 & 1 & 2 & 3 & 1 & 2 & 3 &
   * * *       * * *

e||-----------|-----------|-----------|-----------|
B||-----------|-----------|-----------|-----------|
G||-----------|-----------|-----------|-----------|
D||-----------|-----------|-----------|--4---4----|
A||------2---2|------2---2|--6---6----|-----------|
E||0-0-0---0--|0-0-0---0--|4---4---4-4|4---4---4-4|
   1 & 2 & 3 & 1 & 2 & 3 & 1 & 2 & 3 & 1 & 2 & 3 &
   * * *       * * *

e||-----------|-----------|-----------|-----------|
B||-----------|-----------|-----------|-----------|
G||-----------|-----------|-----------|-----------|
D||-----------|-----------|-----------|--4---4----|
A||------4---4|------4---4|---6---6---|-----------|
E||2-2-2---2--|2-2-2---2--|4---4---4-4|4---4---4-4|
   1 & 2 & 3 & 1 & 2 & 3 & 1 & 2 & 3 & 1 & 2 & 3 &
   * * *       * * *

e||-----------|-----------|-----------|-----------|
B||-----------|-----------|-----------|-----------|
G||-----------|-----------|-----------|-----------|
D||------4-4-4|------4-4-4|-----------|-----------|
A||--6--------|--6--------|--6---6-6-6|--6---6-6-6|
E||5---5------|5---5------|4---4------|4---4------|
   1 & 2 & 3 & 1 & 2 & 3 & 1 & 2 & 3 & 1 & 2 & 3 &




(3:32) FIANL CHORUS (For this part it is confusing to pick out the notes so I just put
chords that sound good with it.)(x5)

e||4-4-4-4-4-4-4-4|4-4-4-4-4-4-4-4|5-5-5-5-5-5-5-5|5-5-5-5-5-5-5-5-5|
B||5-5-5-5-5-5-5-5|5-5-5-5-5-5-5-5|5-5-5-5-5-5-5-5|5-5-5-5-5-5-5-5-5|
G||6-6-6-6-6-6-6-6|4-4-4-4-4-4-4-4|6-6-6-6-6-6-6-6|6-6-6-6-6-6-6-6-6|
D||6-6-6-6-6-6-6-6|6-6-6-6-6-6-6-6|7-7-7-7-7-7-7-7|7-7-7-7-7-7-7-7-7|
A||4-4-4-4-4-4-4-4|7-7-7-7-7-7-7-7|---------------|-----------------|
E||4-4-4-4-4-4-4-4|4-4-4-4-4-4-4-4|---------------|-----------------|
   1 & 2 & 3 & 4 & 1 & 2 & 3 & 4 & 1 & 2 & 3 & 4 & 1 & 2 & 3 & 4 &

“Rhythymy Guitar Bit” for (2:20) POST-CHORUS

e||--------------|---------------|
B||--------------|---------------|
G||--------------|---------------|
D||--------------|------4---4----| x 2
A||------6--6(x4)|------2---2(x4)|
E||------4--4----|---------------|
   1 & 2 & 3 &    1 & 2 & 3 &

“Rhythymy Guitar Bit” for (2:35) VERSE

e||--------------|-----------|-----------|
B||--------------|-----------|-----------|
G||--------------|-----------|-----------|
D||--------------|-----------|-----------|
A||------2--2(x2)|------4--4-|------6--6-|
E||------0--0----|------2--2-|------4--4-|
   1 & 2 & 3 &    1 & 2 & 3 & 1 & 2 & 3 &


e||--------------|-----------|-----------|
B||--------------|-----------|-----------|
G||--------------|-----------|-----------|
D||--------------|-----------|------4--4-|
A||------4--4(x2)|------6--6-|-----------|
E||------2--2----|------4--4-|------4--4-|
   1 & 2 & 3 &    1 & 2 & 3 & 1 & 2 & 3 &

e||--------------|-----------|-----------|
B||--------------|-----------|-----------|
G||--------------|-----------|-----------|
D||--------------|-----------|------4--4-|
A||------2--2(x2)|------6--6-|-----------|
E||------0--0----|------4--4-|------4--4-|
   1 & 2 & 3 &    1 & 2 & 3 & 1 & 2 & 3 &


e||--------------|-----------|-----------|
B||--------------|-----------|-----------|
G||--------------|-----------|-----------|
D||--------------|-----------|------4--4-|
A||------4--4(x2)|------6--6-|-----------|
E||------2--2----|------4--4-|------4--4-|
   1 & 2 & 3 &    1 & 2 & 3 & 1 & 2 & 3 &

e||--------------|-----------|-----------|
B||--------------|-----------|-----------|
G||--------------|-----------|-----------|
D||------4--4----|-----------|-----------|
A||----------(x2)|------6--6-|------6--6-|
E||------5--5----|------4--4-|------4--4-|
   1 & 2 & 3 &    1 & 2 & 3 & 1 & 2 & 3 &

e||--------------|---------------|
B||--------------|---------------|
G||--------------|---------------|
D||--------------|------4---4----| x 2
A||------6--6(x4)|------2---2(x4)|
E||------4--4----|---------------|
   1 & 2 & 3 &    1 & 2 & 3 &


e||--------------|-----------|-----------|
B||--------------|-----------|-----------|
G||--------------|-----------|-----------|
D||--------------|-----------|-----------|
A||------2--2(x2)|------4--4-|------6--6-|
E||------0--0----|------2--2-|------4--4-|
   1 & 2 & 3 &    1 & 2 & 3 & 1 & 2 & 3 &


e||--------------|-----------|-----------|
B||--------------|-----------|-----------|
G||--------------|-----------|-----------|
D||--------------|-----------|------4--4-|
A||------4--4(x2)|------6--6-|-----------|
E||------2--2----|------4--4-|------4--4-|
   1 & 2 & 3 &    1 & 2 & 3 & 1 & 2 & 3 &

e||--------------|-----------|-----------|
B||--------------|-----------|-----------|
G||--------------|-----------|-----------|
D||--------------|-----------|------4--4-|
A||------2--2(x2)|------6--6-|-----------|
E||------0--0----|------4--4-|------4--4-|
   1 & 2 & 3 &    1 & 2 & 3 & 1 & 2 & 3 &


e||--------------|-----------|-----------|
B||--------------|-----------|-----------|
G||--------------|-----------|-----------|
D||--------------|-----------|------4--4-|
A||------4--4(x2)|------6--6-|-----------|
E||------2--2----|------4--4-|------4--4-|
   1 & 2 & 3 &    1 & 2 & 3 & 1 & 2 & 3 &

e||--------------|-----------|-----------|
B||--------------|-----------|-----------|
G||--------------|-----------|-----------|
D||------4--4----|-----------|-----------|
A||----------(x2)|------6--6-|------6--6-|
E||------5--5----|------4--4-|------4--4-|
   1 & 2 & 3 &    1 & 2 & 3 & 1 & 2 & 3 &


LYRICS:

I grabbed hold of her wrist and my hands closed from tip to tip.
I said, you’ve taken the diet too far, you have got to let it slip
But she’s not eating again,
She’s not eating again,
She’s not eating again,
She’s not eating again,
I ask her to speak French and then I need her to translate.
I get the feeling she makes the meaning more significant.
She was always far too pretty for me to believe in a single word she said
Believe a word she said.

At fourteen, her mother died in a routine operation from allergic reaction to a 
general anaesthetic,
Spent the rest of her teens experimenting with prescriptions in a futile attempt to know
more than the doctors.

She said one day to leave her, sand up to her shoulders ,waiting for the tide
To drag her to the ocean, to another sea’s shore, this thing hurts like hell.
But what did you expect?

And all you can hear is the sound of your own heart.
And all you can feel is your lungs flood and the blood course.
But oh, I can see five hundred years dead set ahead of me,
Five hundred behind, a thousand years in perfect symmetry.

Best known left wrist right finger, through all the southern states.
On every video games machine they call her triple a.
They were racists on the radio, trying to give up smoking.
The chat show host , he joked “you have to wait for the government program”
You talk about your politics and I wonder if you could be one of them.
But you could never kiss a tory boy without wanting to cut off your tongue again.
A good place to look at the future is when you are sat at the sea,
With the salt up to your ankles and a view of the end of the pier
You may look down at your model’s feet and wish that you’d just float away.
And the weather here is overcast and the sea is the same shade of gray.
So the landscape before you looks just like the edge of the world.
But to the left side and the right side, either way is a crazy golf course.

The sea is (The sea is)
A good place (A good height)
To think of (To think about the future)

And all you can hear is the sound of your own heart.
And all you can feel is your lungs flood and the blood course.
But oh, I can see five hundred years dead set ahead of me,
Five hundred behind, a thousand years in perfect symmetry.
A thousand years, no getting rid of me.
A thousand years in perfect symmetry.





Comments


Popular Los Campesinos tabs & chords
By Your Hand Chords
Drop It Doe Eyes Chords
Sweet Dreams Sweet Cheeks Chords
To Tundra Chords
We Are All Accelerated Readers Chords
Heart Swells/Pacific Daylight Time Tabs
The Sea Is A Good Place To Think Of The Future 1 Tabs
Broken Heartbeats Sound Like Break Beats Ukulele
Letters From Me To Charlotte Ukulele
Sweet Dreams Sweet Cheeks Ukulele


Song lyrics



↑ Back to top | Tablatures and chords are parodies/interpretations of the original songs. You may use it for private study, scholarship, research or language learning purposes only
© 2014 AZChords.com Contact us | Privacy policy | DMCA | Add/correct tabs | Request tabs | Top 50 tabs