» » »

Bound For The Floor Bass tabs (ver.1)

Artists:  A B C D E F G H I J K L M N O P Q R S T U V W X Y Z # 

Bound For The Floor Bass tabs (ver.1)

Local H
Rating:
1/5 (1 vote)

Hard to play? Try these video lessons and learn fast.
                Band: Local H

Tuned 1/2 step down.
Intro
Gb|-------------------------------------------------------------------------|
Db|-------------------------------------------------------------------------|
Ab|---------------------------5-55-555-5------------------------------------|
Eb|-------------------03-3-33-----------------------------------------------|

Verse
Gb|-------------------------------------------------------------------------|
Db|-2-2-22------------------------------------------------------------------|
Ab|--------03-33-333----------5-55-555-5------------------------------------|
Eb|------------------03-33-33-----------------------------------------------|

Chorus
Gb|-------------------------------------------------------------------------|
Db|-------------------------------------------------------------------------|
Ab|-0-0-00-3-33-333--------5-55-232-----------------------------------------|
Eb|-----------------3-3-33----------3---------------------------------------|

During solo
Gb|-------------------------------------------------------------------------|
Db|-2-2-22------------------------------------------------------------------|
Ab|--------03-33-333----------5-55-555-5------------------------------------|
Eb|------------------03-33-33-----------------------------------------------|

Outro
Gb|-------------------------------------------------------------------------|
Db|-2-2-22------------------------------------------------------------------|
Ab|--------03-33-333----------5---------------------------------------------|
Eb|------------------03-33-33-----------------------------------------------|

This is a really easy song Enjoy.
            
Hard to play? Try these video lessons and learn fast. | Correct




comments powered by Disqus
↑ Back to top | Tablatures and chords are parodies/interpretations of the original songs. You may use it for private study, scholarship, research or language learning purposes only