» » »

Local H, Bound For The Floor Tabs (ver.2)

Artists:  A B C D E F G H I J K L M N O P Q R S T U V W X Y Z # 

Bound For The Floor Tabs (ver.2)

Local H Tabs
Rating:
2/5 (2 votes)
Bound For The Floor lessons Tabs too difficult? Try these video lessons and learn fast
                "Bound For The Floor\" by Local H
Track #3 From Local H\'s second album \"As Good As Dead\"

Tuned a 1/2 step down

Verse
Riff 1
   Asus    Csus      Gsus    Dsus
e--0-0-000---------------------------------
B--0-0-000-0-00-0000-----------------------
G--4-4-444-4-44-4444-4-4-444-4-44-4-5-4-0--    Play 6x
D--2-2-222-2-22-2222-0-0-000-X-XX-X-X-X-0--    then...
A----------3-33-3333-2-2-222-5-55-5-5-5-0--
E--------------------3-3-333---------------

Chorus
Riff 2
e------------------------------------------
B--2-2-222-----------3-3-333---------------
G--2-2-222-5-55------0-0-000-7-77----------   Play 2x
D--2-2-222-5-55------0-0-000-7-77----------   then...
A--0-0-000-3-33-3530-2-2-222-5-55-2-3-2-0--
E--------------------3-3-333---------------

Play Riff 1 6x then...

Play Riff 2 6x then...

Riff 3     *             *
B---------------------------     *Bend play 21 times w/Riff 2 muted guitar
G--4-4-4-2-4-2-4-4-4-4-2-4--      and bass
D---------------------------

Play Riff 3 with Riff 2 a bunch more times and end with..

Riff 1 2x on the last time end with a single Dsus chord

Any comments, questions, corrections send to 
            
Submit corrections

comments powered by Disqus
↑ Back to top | Local H Tabs for Bound For The Floor. Lyrics for acoustic guitar and electric guitar. Tablatures and chords are parodies/interpretations of the original songs. You may use it for private study, scholarship, research or language learning purposes only