» » »

Bound For The Floor Tabs (ver.3)

Artists:  A B C D E F G H I J K L M N O P Q R S T U V W X Y Z # 

Bound For The Floor Tabs (ver.3)

Local H
Rating:
2/5 (1 vote)

Hard to play? Try these video lessons and learn fast.
                BAND: Local H
TUNING: Eb Ab Db Gb Bb Eb or D# G# C# F# A# D#

Intro/Verse/Pre Chorus
guitar 1
|--------------------------------------------------------------------|
|-5--5---5-5-x---5--5-5--5-5-5-5---5--5---5-5-5---5--5-5--5-5-5-4544-|
|-4--4---4-4-x---4--4-4--4-4-4-4---4--4---4-4-4---4--4-4--4-4-4-0000-|
|-2--2---2-2-x---2--2-2--2-2-2-2---2--2---2-2-2---0--0-0--0-0-0-0000-|
|-0--0---0-0-x---3--3-3--3-3-3-0---x--x---x-x-x---0--0-0--0-0-0-0000-|
|------------------------------0---3--3---3-3-3---0--0-0--0-0-0-0000-|x6
  born to be down               I've learned all my lessons before now
  born to be down               I think you'll get used to it
  And you just don't get it     you keep it copacetic
  And you learn to accept it    you know you're so pathetic
  
Chorus 
guitar 1 & 2
|----------------------------------------------|
|-0--0--0-0------------------------------------|
|-2--2--2-2--5--5--5-5-------------7--7--7-7---|
|-2--2--2-2--5--5--5-5--5--5--5-5--7--7--7-7---|
|------------3--3--3-3--5--5--5-5--5--5--5-5---|
|-----------------------3--3--3-3--------------| x4
  And you don't
  And you don't 
  And you don't 
  And you don't

Intro/Verse/Pre Chorus

born to be down               I think I've said this before now
born to be down               What good is confidence
And you just don't get it     You keep it copacetic
And you learn to accept it    You know you're so pathetic

Chorus x7

And you don't 
And you don't
And you don't
And you don't
And you just don't get it     You keep it copacetic
And you learn to accept it    You know you're so pathetic

Solo
|-------------------------------|
|-------------------------------|
|-4-4-4-2-5-4-2-4-4-4-2-5-4-2-5-|
|-------------------------------|
|-------------------------------|
|-------------------------------| a bunch o times

After a few times guitar 2 comes in with the chorus
|-------------------------------------------------|
|-0--0--0-0---------------------------------------|
|-2--2--2-2--5--5--5-5---------------7--7--7-7-7--|
|-2--2--2-2--5--5--5-5--5--5--5-5-5--7--7--7-7-7--|
|------------3--3--3-3--5--5--5-5-5--5--5--5-5-5--|
|-----------------------3--3--3-3-3---------------|

outro
guitar 1
|--------------------------------------------------------------------|
|-5--5---5-5-x---5--5-5--5-5-5-5---5--5---5-5-5---5--5-5--5-5-5-4544-|
|-4--4---4-4-x---4--4-4--4-4-4-4---4--4---4-4-4---4--4-4--4-4-4-0000-|
|-2--2---2-2-x---2--2-2--2-2-2-2---2--2---2-2-2---0--0-0--0-0-0-0000-|
|-0--0---0-0-x---3--3-3--3-3-3-0---x--x---x-x-x---0--0-0--0-0-0-0000-|
|------------------------------0---3--3---3-3-3---0--0-0--0-0-0-0000-|

|---------------------------------------------------|
|-5--5---5-5-x---5--5-5--5-5-5-5---5--5---5-5-5---5-|
|-4--4---4-4-x---4--4-4--4-4-4-4---4--4---4-4-4---4-|
|-2--2---2-2-x---2--2-2--2-2-2-2---2--2---2-2-2---0-|
|-0--0---0-0-x---3--3-3--3-3-3-0---x--x---x-x-x---0-|
|------------------------------0---3--3---3-3-3---0-|

ok there you go that is the WHOLE song hope you like it
            
Hard to play? Try these video lessons and learn fast. | Correct




comments powered by Disqus
↑ Back to top | Tablatures and chords are parodies/interpretations of the original songs. You may use it for private study, scholarship, research or language learning purposes only