» » »

Its Goin Down Tabs (ver.1)

Artists:  A B C D E F G H I J K L M N O P Q R S T U V W X Y Z # 

Its Goin Down Tabs (ver.1)

Linkin Park
Rating:
0/5 (0 votes)

Hard to play? Try these video lessons and learn fast.
                PROPS GO TO: Spike Monata

Volume Knob at 0

Intro:
D-------------------------------------------------
A-------------------------------------------------
F-------------------------------------------------
C-0-----------------------------------------------
G-0-----------------------------------------------
C-0-----------------------------------------------
Strike hard and Turn up the volume

D-------------------------------------------------
A-------------------------------------------------
F-------------------------------------------------
C-0-0-1-1-0-----------0-0--0--5--0--5-------------           X4
G-0-0-1-1-0-----------0-0--0--3--0--3-------------
C-0-0-1-1-0--2*7--2*7-0-0-------------------------

Verse 1
D-------------------------------------------------
A-------------------------------------------------
F-------------------------------------------------
C-0-0-1-1------------------0--5--0--5-------------           X8   
G-0-0-1-1------------------0--3--0--3-------------
C-0-0-1-1-----------------------------------------

Chorus
D-------------------------------------------------
A-------------------------------------------------
F-------------------------------------------------
C-0-0-1-1-0-----------0-0--0--5--0--5-------------           X4
G-0-0-1-1-0-----------0-0--0--3--0--3-------------
C-0-0-1-1-0--2*7--2*7-0-0-------------------------

Verse 2
D-------------------------------------------------
A-------------------------------------------------
F-------------------------------------------------
C-0-0-1-1------------------0--5--0--5-------------           X4   
G-0-0-1-1------------------0--3--0--3-------------
C-0-0-1-1-----------------------------------------

D-------------------------------------------------
A-------------------------------------------------
F-------------------------------------------------
C-0-0-1-1----0--0------------0--5--0--5-----------           X1  
G-0-0-1-1----0--0------------0--3--0--3-----------
C-0-0-1-1----0--0---------------------------------

Bridge:
D-------------------------------------------------
A-------------------------------------------------
F-------------------------------------------------
C-0--0--1--1--0-----------------------------------          x2
G-0--0--1--1--0-----------------------------------
C-0--0--1--1--0-----------------------------------

A little improvising is in order but not that hard to pick up.
Rock on Linkin Park f&*#$in rules!!!!

Need Help 
            
Hard to play? Try these video lessons and learn fast. | Correct




comments powered by Disqus
↑ Back to top | Tablatures and chords are parodies/interpretations of the original songs. You may use it for private study, scholarship, research or language learning purposes only