» » »

Linkin Park, A Place 4 Mi Hed Tabs (ver.1)

Artists:  A B C D E F G H I J K L M N O P Q R S T U V W X Y Z # 

A Place 4 Mi Hed Tabs (ver.1)

Linkin Park Tabs
 Rating:
4/5 (4 votes)
A Place 4 Mi Hed lessons Tabs too difficult? Try these video lessons and learn fast
1
                Intro: Clean PM
e|----------------------------|
B|----------------------------|
G|----------------------------|
D|----888-9-8-7---------------|    x8
A|-6-6----------9-9-7777-7-9--|
D|----------------------------|

Verse: Distorted
e|------------------------------|
B|------------------------------|
G|------------------------------|
D|----888-9-8-7-----------------|     x6
A|-6-6------------9-9-7777-7-9--|
D|------------------------------|

Chorus: Distorted
e|-----------------------------|
B|-----------------------------|
G|-----333-4-3-----------------|
D|-1-1-333-4-3-6-4-4-2222-2-4--|      x4
A|-1-1-111-2-1-6-4-4-2222-2-4--|
D|-1-1---------6-4-4-2222-2-4--|

Verse: Distorted
e|-----------------------------------}--------------------------|
B|-----------------------------------}--------------------------|
G|-----------------------------------}--------------------------|
D|----888-9-8-7-^---------------(x4)-}-1~~--4~~--1~~--4~~\\\\9--|
A|-6-6----------^--9-9-7777-7-9------}-1~~--4~~--1~~--4~~\\\\9--|
D|--------------^--------------------}-1~~--4~~--1~~--4~~\\\\9--|
  (  PM & Clean x1)   

Chorus: Distorted     x4

...You try to take the best of my, GO AWAY!

Chorus: Distorted     x8

Ending: Distorted
e|-----------------------------|
B|-----------------------------|
G|--------------------------6--|
D|-1-1-11-1-1--11-1-1--11-1-x--|
A|-1-1-11-1-1--11-1-1--11-1-4--|
D|-1-1-11-1-1--11-1-1--11-1----|

End: Distorted
e|------|
B|------|
G|------|
D|-1-1--|
A|-1-1--|
D|-1-1--|

Hope you like my tab, It's 117.5% Right.
            
Submit corrections

comments powered by Disqus
↑ Back to top | Linkin Park Tabs for A Place 4 Mi Hed. Lyrics for acoustic guitar and electric guitar. 1 Tablatures and chords are parodies/interpretations of the original songs. You may use it for private study, scholarship, research or language learning purposes only