» » »

Take Me Away Tabs (ver.3)

Artists:  A B C D E F G H I J K L M N O P Q R S T U V W X Y Z # 

Take Me Away Tabs (ver.3)

Lindsay Lohan
Rating:
0/5 (0 votes)

Hard to play? Try these video lessons and learn fast.
                This song rocks !!, could hear it all the time, sounds great, and not so difficult.


Intro:
E -------------------------------------------------------|
B -------------------------------------------------------|
G -------------------------------------------------------|
D -5-5-x-x-x-x-x-x-5-5-x-x-x-x-x-x-5-5-x-x-5-5-x-x555555-|
A -5-5-x-x-x-x-x-x-2-2-x-x-x-x-x-x-2-2-x-x-2-2-x-x222222-|
E -2-2-x-x-x-x-x-x-2-2-x-x-x-x-x-x-2-2-x-x-2-2-x-x222222-|

E -------------------------------------------------------|
B -------------------------------------------------------|
G -------------------------------------------------------|
D -------------------------------------------------------|
A ---------2-2-x-x-3-2---2-------------------------------|
E -2-2-5-5-------------5---6-5-2-2-----------------------|
Repeat x 2 then, the bass plays the same, but you can play it
with palm mute (x3)

E -------------------------------------------------------|
B -------------------------------------------------------|
G -------------------------------------------------------|
D -5-5-x-x-x-x-x-x-5-5-x-x-x-x-x-x-5-5-x-x-5-5-x-x555555-|
A -5-5-x-x-x-x-x-x-2-2-x-x-x-x-x-x-2-2-x-x-2-2-x-x222222-|
E -2-2-x-x-x-x-x-x-2-2-x-x-x-x-x-x-2-2-x-x-2-2-x-x222222-|

Chorus

E -------------------------------------------------------|
B -------------------------------------------------------|
G -------------------------------------------------------|
D -12-12-1212121212--44444--99999--77777-----------------|
A -12-12-1212121212--44444--99999--77777-----------------|
E -10-10-1010101010--22222--77777--55555-----------------|

E -------------------------------------------------------------------|
B -------------------------------------------------------------------|
G -------------------------------------------------------------------|
D -12-12-1212121212--4444--9999--7777--14141414--15151515--11111111--|
A -12-12-1212121212--4444--9999--7777--14141414--13131313---9-9-9-9--|
E -10-10-1010101010--2222--7777--5555--12121212--13131313---9-9-9-9--|

Repeat intro
Note: Timing is a little different

Repeat chorus

Solo

E ------------------------------------------------------------|
B ------------------------------------------------------------|
G --------------------4/6\4-----------------------------------|
D --------------------------4/7\4/-9-9-9-7--------------------|
A -7/14\7-9-9-9~-7~5/7~--------------------9-9--9999-7-5/12~--|
E ------------------------------------------------------------|

E --(12)-14~-14-14-14-12------------------------(12)-14~-14-12----------|
B ----------------------15-14-1515151514-12-10~----------------15-12h15-|
G ----------------------------------------------------------------------|
D-----------------------------------------------------------------------|
A ----------------------------------------------------------------------|
E ----------------------------------------------------------------------|

E ----------------------------------------------------------------------|
B --1717171717171717-1818181818181818\7-99-7-99-7-9-7-9-7-6~-/14/18/19~-|
G ----------------------------------------------------------------------|
D-----------------------------------------------------------------------|
A ----------------------------------------------------------------------|
E ----------------------------------------------------------------------|

Repeat chorus

Repeat intro, and that's it !, hope u like it
            
Hard to play? Try these video lessons and learn fast. | Correct




comments powered by Disqus
↑ Back to top | Tablatures and chords are parodies/interpretations of the original songs. You may use it for private study, scholarship, research or language learning purposes only