» » »

Lindsay Lohan, Take Me Away Tabs (ver.2)

Artists:  A B C D E F G H I J K L M N O P Q R S T U V W X Y Z # 

Take Me Away Tabs (ver.2)

Lindsay Lohan Tabs
 Rating:
4.2/5 (5 votes)
Take Me Away lessons Tabs too difficult? Try these video lessons and learn fast
                Legends:
 X - muted note
 / - slide forward
 \ - slide backward
 ^ - bend
 ~ - let ring

Intro
|-------------------------------------------------------------------------|
|-------------------------------------------------------------------------|
|-----X-X-X-X-X-X-X-X-----X-X-X-X-X-X-X-X-----X-X-----X-X-----------------|
|-4-4-X-X-X-X-X-X-X-X-4-4-X-X-X-X-X-X-X-X-4-4-X-X-4-4-X-X-4-4-4-4-4-4-4-4-|
|-4-4-X-X-X-X-X-X-X-X-4-4-X-X-X-X-X-X-X-X-4-4-X-X-4-4-X-X-4-4-4-4-4-4-4-4-|
|-2-2-X-X-X-X-X-X-X-X-2-2-X-X-X-X-X-X-X-X-2-2-X-X-2-2-X-X-2-2-2-2-2-2-2-2-|

Pre-Verse
|-------------------------------------------------------------------------|
|-------------------------------------------------------------------------|
|-------------------------------------------------------------------------|
|-------------------------------------------------------------------------|
|-----0-0-2-2-X-X-X-3-2-0-2-2-0-0-----0-0-2-2-X-X-X-3-2-0-2-2-0-0---------|
|-2-2---------X-X-X---------------2-2---------X-X-X-----------------------|

Verse
|-------------------------------------------------------------------------|
|-------------------------------------------------------------------------|
|-------------------------------------------------------------------------|
|-------------------------------------------------------------------------|
|------------------------------------0-0-1-2-2------------3-2-0-2-3-0-----|
|--------------------------------2-2----------------------------------2---|
Listen to the song for the timing. This part covers mostly bass guitar.

Repeat Intro

Chorus
|-------------------------------------------------------------------------|
|-------------------------------------------------------------------------|
|-7-7-7-7-7-7-7-7-----------------4-4-4-4-4-4-4-4-6-6-6-6-6-6-6-6---------|
|-7-7-7-7-7-7-7-7-4-4-4-4-4-4-4-4-4-4-4-4-4-4-4-4-6-6-6-6-6-6-6-6---------|
|-5-5-5-5-5-5-5-5-4-4-4-4-4-4-4-4-2-2-2-2-2-2-2-2-4-4-4-4-4-4-4-4---------|
|-----------------2-2-2-2-2-2-2-2-----------------------------------------|

|-------------------------------------------------------------------------|
|-------------------------------------------------------------------------|
|-----------------6-6-6-6-6-6-6-6-4-4-4-4-6-6-6-6-9-9-1010-6--------------|
|-4-4-4-4-4-4-4-4-6-6-6-6-6-6-6-6-4-4-4-4-6-6-6-6-9-9-1010-6--------------|
|-4-4-4-4-4-4-4-4-4-4-4-4-4-4-4-4-2-2-2-2-4-4-4-4-7-7-8-8--4--------------|
|-2-2-2-2-2-2-2-2---------------------------------------------------------|
Repeat the last note 24 times.

For Verse 2, Repeat Pre-Verse 2 times then
|-------------------------------------------------------------------------|
|-------------------------------------------------------------------------|
|-------------------------------------------------------------------------|
|-------------------------------------------------------------------------|
|--------------------------------------------------------3-2-0-2-3-0------|
|--------------------------------------------------------------------2----|
Listen to the song for the timing. This part covers mostly bass guitar.

Repeat Intro without the first two sets of muted notes.

Repeat Chorus

Solo(do a pickslide before this)
|------------------------------/7-7-7-7-5-2-2-2-2-2-2-0---5-12^14---------|
|-------------------------------------------------------3-----------------|
|----------------/6-4^6r4-2-----------------------------------------------|
|-4-4-4-4-2-0-4-4-----------4-4-------------------------------------------|
|-------------------------------------------------------------------------|
|-------------------------------------------------------------------------|

|-5-12^14-14-14r12-10-9-9-9-9-9-----------12^14-12p10----10---------------|
|-------------------------------12-10\/12-------------12------------------|
|-------------------------------------------------------------------------|
|-------------------------------------------------------------------------|
|-------------------------------------------------------------------------|
|-------------------------------------------------------------------------|

|-12-12-12-12-12-12-12-12-13-13-13-13-13-13-13-13-------------------------|
|(Do this part strumming up and down very quickly)------------------------|
|-------------------------------------------------------------------------|
|-------------------------------------------------------------------------|
|-------------------------------------------------------------------------|
|-------------------------------------------------------------------------|

|---------------------------------7^9-11^13-12^14~~~~~~~~~~~/-------------|
|-9-9-9-7^9-9-9r7-6-7/9-7-6-6-6-6-----------------------------------------|
|-------------------------------------------------------------------------|
|-------------------------------------------------------------------------|
|-------------------------------------------------------------------------|
|-------------------------------------------------------------------------|

Repeat Chorus

I'm not sure but I think the last note is to strum all strings open
            
Submit corrections

comments powered by Disqus
↑ Back to top | Lindsay Lohan Tabs for Take Me Away. Lyrics for acoustic guitar and electric guitar. Tablatures and chords are parodies/interpretations of the original songs. You may use it for private study, scholarship, research or language learning purposes only