» » »

Take Me Away Bass tabs (ver.1)

Artists:  A B C D E F G H I J K L M N O P Q R S T U V W X Y Z # 

Take Me Away Bass tabs (ver.1)

Lindsay Lohan
Rating:
1/5 (2 votes)

Hard to play? Try these video lessons and learn fast.
                this is the song that she play in the film Freaky Friday. For something wrong e-mail me 

intro
G-
D-
A-00000000
E-

at 0.07
G-------------------------|
D-------------------------|
A-------------------------|
E-03-04-6-1-6-4-2-4-1-----|   x2

verse
G-------------------------|
D-------------------------|
A-------------------------|
E-03-04-6-1-6-4-2-4-1-----|   x4

pre chorus
G-------------------------|
D-------------------------|
A-00---00---00-00-0000000-|
E-------------------------|

chorus
G--------------------------|
D--------------------------|
A-------4(x8)--------------|
E-2(x8)-------4(x8)-6(x8)--|

G-----------------------------------|
D-----------------------------------|
A-------4(x8)-----------------------|
E-2(x8)------6(x16)-9(x8)-10(x8)-12-|(x8)/

verse
G------------------------------------------------------------|
D------------------------------------------------------------|
A------------------------------------------------------------|
E-03-04-6-1-6-4-2-4-1-   x4 at the 4th stop at E-03----------|

G-------------------------|
D-------------------------|
A-------------------------|
E-03-04-6-1-6-4-2-4-1-----|   x3

pre chorus
G-------------------------|
D-------------------------|
A-00---00---00-00-0000000-|
E-------------------------|

chorus
G--------------------------|
D--------------------------|
A-------4(x8)--------------|
E-2(x8)-------4(x8)-6(x8)--|

G-----------------------------------|
D-----------------------------------|
A-------4(x8)-----------------------|
E-2(x8)------6(x16)-9(x8)-10(x8)-12-|(x8)/

bridge
G--------------------------|
D-------4(x8)--------------|
A-2(x8)-------4(x8)-6(x8)--|
E--------------------------|

G------------------------|
D-------4(x8)------------|
A-2(x8)-------6(x10)-----|
E------------------------|

G-------------------------|
D-------4(x8)-------------|
A-2(x8)-------0(x8)-------|
E-------------------------|

chorus
G--------------------------|
D--------------------------|
A-------4(x8)--------------|
E-2(x8)-------4(x8)-6(x8)--|

G-----------------------------------|
D-----------------------------------|
A-------4(x8)-----------------------|
E-2(x8)------6(x16)-9(x8)-10(x8)-12-|(x8)/

G--------------------------|
D--------------------------|
A-------4(x8)--------------|
E-2(x8)-------4(x8)-6(x8)--|

G-----------------------------------|
D-----------------------------------|
A-------4(x8)-----------------------|
E-2(x8)------6(x16)-9(x8)-10(x8)-12-|(x8)/

end no bass i think enjoy
            
Hard to play? Try these video lessons and learn fast. | Correct




comments powered by Disqus
↑ Back to top | Tablatures and chords are parodies/interpretations of the original songs. You may use it for private study, scholarship, research or language learning purposes only