» » »

Left Front Tire, Bring You Down Tabs (ver.2)

Artists:  A B C D E F G H I J K L M N O P Q R S T U V W X Y Z # 

Bring You Down Tabs (ver.2)

Left Front Tire Tabs
 Rating:
4/5 (4 votes)
Bring You Down lessons Tabs too difficult? Try these video lessons and learn fast
                
~ = Let Ring
< = Pick slide (In that direction)

First Verse - (Feel frustration sometimes...)
E|-------------------------------------------------------------------
B|-------------------------------------------------------------------
G|-5-----------------------------------------------------------------
D|-5----------------5----------------7------------------------------- x1
A|-3----------------5----------------7-------------------------------
E|------------------3----------------5-------------------------------

E|-------------------------------------------------------------------
B|-------------------------------------------------------------------
G|-------------------------------------------------------------------
D|-3-3-3-3--5-5-5-5-------------------------------------------------- x1
A|-3-3-3-3--5-5-5-5--------------------------------------------------
E|-1-1-1-1--3-3-3-3--------------------------------------------------

E|-------------------------------------------------------------------
B|-------------------------------------------------------------------
G|-5-5-5-5-5-5-5-5---------------------------------------------------
D|-5-5-5-5-5-5-5-5--5-5-5-5-5-5-5-5--7-7-7-7-7-7-7-7----------------- x1
A|-3-3-3-3-3-3-3-3--5-5-5-5-5-5-5-5--7-7-7-7-7-7-7-7-----------------
E|------------------3-3-3-3-3-3-3-3--5-5-5-5-5-5-5-5-----------------

E|-------------------------------------------------------------------
B|-------------------------------------------------------------------
G|-------------------------------------------------------------------
D|-3-3-3-3--5-5-5-5-------------------------------------------------- x1
A|-3-3-3-3--5-5-5-5--------------------------------------------------
E|-1-1-1-1--3-3-3-3--------------------------------------------------

E|-------------------------------------------------------------------
B|-------------------------------------------------------------------
G|-5-----5-----------------------------------------------------------
D|-5-----5--5-----5--7-----7--3-----3-------------------------------- x2
A|-3-----3--5-----5--7-----7--3-----3--------------------------------
E|----------3-----3--5-----5--1-----1--------------------------------

Chorus - (I'm not trying to bring you down...)
E|-------------------------------------------------------------------
B|-------------------------------------------------------------------
G|-9-9-9-9-----------------------------------------------------------
D|-9-9-9-9--9-9-9-9--7-7-7-7-7-7-7-7--------------------------------- x1
A|-7-7-7-7--9-9-9-9--7-7-7-7-7-7-7-7---------------------------------
E|----------7-7-7-7--5-5-5-5-5-5-5-5---------------------------------

E|-------------------------------------------------------------------
B|-------------------------------------------------------------------
G|-9-9-9-9-----------------------------------------------------------
D|-9-9-9-9--9-9-9-9--11-11-11-11--7-7-7-7---------------------------- x1
A|-7-7-7-7--9-9-9-9--11-11-11-11--7-7-7-7----------------------------
E|----------7-7-7-7--9--9--9--9---5-5-5-5----------------------------

E|-------------------------------------------------------------------
B|-------------------------------------------------------------------
G|-9-9-9-9-----------------------------------------------------------
D|-9-9-9-9--9-9-9-9--7-7-7-7-7-7-7-7--------------------------------- x1
A|-7-7-7-7--9-9-9-9--7-7-7-7-7-7-7-7---------------------------------
E|----------7-7-7-7--5-5-5-5-5-5-5-5---------------------------------

E|-------------------------------------------------------------------
B|-------------------------------------------------------------------
G|-9-9-9-9-9-9-9-9---------------------------------------------------
D|-9-9-9-9-9-9-9-9--9-9-9-9-9-9-9-9---------------------------------- x1
A|-7-7-7-7-7-7-7-7--9-9-9-9-9-9-9-9----------------------------------
E|------------------7-7-7-7-7-7-7-7----------------------------------

Interlude - Wait for bass to play this once, then, continue.
E|-------------------------------------------------------------------
B|-------------------------------------------------------------------
G|-7-----------------------------------------------------------------
D|-7--7--9--5-5-5---------------------------------------------------- x2
A|-5--7--9--5-5-5----------------------------------------------------
E|----5--7--3-3-3----------------------------------------------------

E|-------------------------------------------------------------------
B|-------------------------------------------------------------------
G|-------------------------------------------------------------------
D|-4~~~~--5~~~~------------------------------------------------------ x1
A|-4~~~~--5~~~~-<<<<<<<<---------------------------------------------
E|-2~~~~--3~~~~-<<<<<<<<---------------------------------------------

Second Verse
E|-------------------------------------------------------------------
B|-------------------------------------------------------------------
G|-5----------------5----------------5----------------5--------------
D|-5----------------5----------------5----------------5-------------- x1
A|-3----------------3----------------3----------------3--------------
E|-------------------------------------------------------------------

E|-------------------------------------------------------------------
B|-------------------------------------------------------------------
G|-5-5-5-5-5-5-5-5---------------------------------------------------
D|-5-5-5-5-5-5-5-5--5-5-5-5-5-5-5-5--7-7-7-7-7-7-7-7----------------- x1
A|-3-3-3-3-3-3-3-3--5-5-5-5-5-5-5-5--7-7-7-7-7-7-7-7-----------------
E|------------------3-3-3-3-3-3-3-3--5-5-5-5-5-5-5-5-----------------

E|-------------------------------------------------------------------
B|-------------------------------------------------------------------
G|-------------------------------------------------------------------
D|-3-3-3-3--5-5-5-5-------------------------------------------------- x1
A|-3-3-3-3--5-5-5-5--------------------------------------------------
E|-1-1-1-1--3-3-3-3--------------------------------------------------


E|-------------------------------------------------------------------
B|-------------------------------------------------------------------
G|-5-----5-----------------------------------------------------------
D|-5-----5--5-----5--7-----7--3-----3-------------------------------- x2
A|-3-----3--5-----5--7-----7--3-----3--------------------------------
E|----------3-----3--5-----5--1-----1--------------------------------

Chorus
E|-------------------------------------------------------------------
B|-------------------------------------------------------------------
G|-9-9-9-9-----------------------------------------------------------
D|-9-9-9-9--9-9-9-9--7-7-7-7-7-7-7-7--------------------------------- x1
A|-7-7-7-7--9-9-9-9--7-7-7-7-7-7-7-7---------------------------------
E|----------7-7-7-7--5-5-5-5-5-5-5-5---------------------------------

E|-------------------------------------------------------------------
B|-------------------------------------------------------------------
G|-9-9-9-9-----------------------------------------------------------
D|-9-9-9-9--9-9-9-9--11-11-11-11--7-7-7-7---------------------------- x1
A|-7-7-7-7--9-9-9-9--11-11-11-11--7-7-7-7----------------------------
E|----------7-7-7-7--9--9--9--9---5-5-5-5----------------------------

E|-------------------------------------------------------------------
B|-------------------------------------------------------------------
G|-9-9-9-9-----------------------------------------------------------
D|-9-9-9-9--9-9-9-9--7-7-7-7-7-7-7-7--------------------------------- x1
A|-7-7-7-7--9-9-9-9--7-7-7-7-7-7-7-7---------------------------------
E|----------7-7-7-7--5-5-5-5-5-5-5-5---------------------------------

E|-------------------------------------------------------------------
B|-------------------------------------------------------------------
G|-9-9-9-9-9-9-9-9---------------------------------------------------
D|-9-9-9-9-9-9-9-9--9-9-9-9-9-9-9-9---------------------------------- x1
A|-7-7-7-7-7-7-7-7--9-9-9-9-9-9-9-9----------------------------------
E|------------------7-7-7-7-7-7-7-7----------------------------------

Interlude - Note: Bass plays this twice, then you play with bass once.
E|-------------------------------------------------------------------
B|-------------------------------------------------------------------
G|-7~~~~~~~~--7------------------------------------------------------
D|-7~~~~~~~~--7--7--9--5-5-5----------------------------------------- x1
A|-5~~~~~~~~--5--7--9--5-5-5-----------------------------------------
E|---------------5--7--3-3-3-----------------------------------------

E|-------------------------------------------------------------------
B|-------------------------------------------------------------------
G|-------------------------------------------------------------------
D|-4~~~~--5~~~~------------------------------------------------------ x1
A|-4~~~~--5~~~~------------------------------------------------------
E|-2~~~~--3~~~~------------------------------------------------------

Bridge
E|----3--------------------------------------------------------------
B|-1-----3--1--------------------------------------------------------
G|-------------------------------------------------------------------
D|------------------------------------------------------------------- x8
A|-------------------------------------------------------------------
E|-------------------------------------------------------------------

E|-------------------------------------------------------------------
B|-------------------------------------------------------------------
G|-5-----5-----5-----5-----------------------------------------------
D|-5-----5-----5-----5--------5-----5-----5-----5-------------------- x1
A|-3-----3-----3-----3--------3-----3-----5-----5--------------------
E|----------------------------3-----3-----3-----3--------------------

E|-------------------------------------------------------------------
B|-------------------------------------------------------------------
G|-------------------------------------------------------------------
D|-7-----7-----7-----7--------3-----3-------5-----5------------------ x1
A|-7-----7-----7-----7--------3-----3-------5-----5------------------
E|-5-----5-----5-----5--------1-----1-------3-----3------------------

Note: Either play this or the riff indicated below it.  If you have two guitars,
one plays the picking and the other plays the chords with the bass.
E|-3p0-3p0-3p0-3p0-3p0-3p0-3p0-3p0-3p0-3p0-3p0-3p0-3p0-3p0-3333------
B|-------------------------------------------------------------------
G|-------------------------------------------------------------------
D|------------------------------------------------------------------- x1
A|-------------------------------------------------------------------
E|-------------------------------------------------------------------

OR

E|-------------------------------------------------------------------
B|-------------------------------------------------------------------
G|-5-----5-----5-----5-----------------------------------------------
D|-5-----5-----5-----5--------5-----5-----5-----5-------------------- x1
A|-3-----3-----3-----3--------3-----3-----5-----5--------------------
E|----------------------------3-----3-----3-----3--------------------

E|-------------------------------------------------------------------
B|-------------------------------------------------------------------
G|-------------------------------------------------------------------
D|-7-----7-----7-----7--------3-----3-------5-----5------------------ x1
A|-7-----7-----7-----7--------3-----3-------5-----5------------------
E|-5-----5-----5-----5--------1-----1-------3-----3------------------

Chorus
E|-------------------------------------------------------------------
B|-------------------------------------------------------------------
G|-9-9-9-9-----------------------------------------------------------
D|-9-9-9-9--9-9-9-9--7-7-7-7-7-7-7-7--------------------------------- x1
A|-7-7-7-7--9-9-9-9--7-7-7-7-7-7-7-7---------------------------------
E|----------7-7-7-7--5-5-5-5-5-5-5-5---------------------------------

E|-------------------------------------------------------------------
B|-------------------------------------------------------------------
G|-9-9-9-9-----------------------------------------------------------
D|-9-9-9-9--9-9-9-9--11-11-11-11--7-7-7-7---------------------------- x1
A|-7-7-7-7--9-9-9-9--11-11-11-11--7-7-7-7----------------------------
E|----------7-7-7-7--9--9--9--9---5-5-5-5----------------------------

E|-------------------------------------------------------------------
B|-------------------------------------------------------------------
G|-9-9-9-9-----------------------------------------------------------
D|-9-9-9-9--9-9-9-9--7-7-7-7-7-7-7-7--------------------------------- x1
A|-7-7-7-7--9-9-9-9--7-7-7-7-7-7-7-7---------------------------------
E|----------7-7-7-7--5-5-5-5-5-5-5-5---------------------------------

E|-------------------------------------------------------------------
B|-------------------------------------------------------------------
G|-9-9-9-9-9-9-9-9---------------------------------------------------
D|-9-9-9-9-9-9-9-9--9-9-9-9-9-9-9-9---------------------------------- x1
A|-7-7-7-7-7-7-7-7--9-9-9-9-9-9-9-9----------------------------------
E|------------------7-7-7-7-7-7-7-7----------------------------------

Ending
E|-------------------------------------------------------------------
B|-------------------------------------------------------------------
G|-9~~~~------------------9-9----------------------------------------
D|-9~~~~--9-9--1111--7-7--9-9--9-9--1111--7-7-7---------------------- x1
A|-7~~~~--9-9--1111--7-7--7-7--9-9--1111--7-7-7----------------------
E|--------7-7--9-9---5-5-------7-7--9-9---5-5-5----------------------

E|-------------------------------------------------------------------
B|-------------------------------------------------------------------
G|-------------------------------------------------------------------
D|-4~~~~--7~~--9~~--2~~~~~~~~--2-2----------------------------------- x1
A|-4~~~~--7~~--9~~--2~~~~~~~~--2-2-----------------------------------
E|-2~~~~--5~~--7~~--0~~~~~~~~--0-0-----------------------------------
            
Submit corrections

comments powered by Disqus
↑ Back to top | Left Front Tire Tabs for Bring You Down. Lyrics for acoustic guitar and electric guitar. Tablatures and chords are parodies/interpretations of the original songs. You may use it for private study, scholarship, research or language learning purposes only