>
 >
Bring You Down

Bring You Down Guitar Tabs

Left Front Tire - Bring You Down chords, tabs, tablatures, lyrics

Guitar lessons | Add/correct | Request | Top 50 tabs Artists:  A B C D E F G H I J K L M N O P Q R S T U V W X Y Z 0-9

Bring You Down Guitar Tabs – Left Front Tire

CD, Sheet music, Poster

Do you like Bring You Down? Share with your friends now
Bass TabsTabsTabs v2Tabs v3
------------------------------------------------------------------------------ 
------------------------------------------------------------------------------ 


e |------------------------------------------------------------------| 
B |------------------------------------------------------------------| 
G |-5----------------------------------------------------------------| 
D |-5----------------------------5------------------------------7----| 
A |-3----------------------------5------------------------------7----| 
E |------------------------------3------------------------------5----| 
Feel frustration sometimes, when the words donít come out right 

e |------------------------------------------------------------------| 
B |------------------------------------------------------------------| 
G |-----------------------------------------------------5-5-5-5-5-5--| 
D |-----------------------------3--3--3--3--5--5--5--5--5-5-5-5-5-5--| 
A |-----------------------------3--3--3--3--5--5--5--5--3-3-3-3-3-3--| 
E |-----------------------------1--1--1--1--3--3--3--3---------------| 
footprints in the sand reveal to me a passing of my life. Pleas- 

e |------------------------------------------------------------------| 
B |------------------------------------------------------------------| 
G |-5-5-5-5-5-5-5-5-5-5-5-5-5-5-5-5-5-5------------------------------| 
D |-5-5-5-5-5-5-5-5-5-5-5-5-5-5-5-5-5-5-5-5-5-5-5-5-5-5-5-5-5-5-5-5--| 
A |-3-3-3-3-3-3-3-3-3-3-3-3-3-3-3-3-3-3-5-5-5-5-5-5-5-5-5-5-5-5-5-5--| 
E |-------------------------------------3-3-3-3-3-3-3-3-3-3-3-3-3-3--| 
e stand by me through the thick and thin, though the trials of 

e |------------------------------------------------------------------| 
B |------------------------------------------------------------------| 
G |------------------------------------------------------------------| 
D |-5-5-7-7-7-7-7-7-7-7-7-7-7-7-7-7-7-7-7-3-3-3-3-3-3-3-3-3-5-5-5-5--| 
A |-5-5-7-7-7-7-7-7-7-7-7-7-7-7-7-7-7-7-7-3-3-3-3-3-3-3-3-3-5-5-5-5--| 
E |-3-3-5-5-5-5-5-5-5-5-5-5-5-5-5-5-5-5-5-1-1-1-1-1-1-1-1-1-3-3-3-3--| 
my life. Heís dealing with me now, I turn around youíre doing it 

e |------------------------------------------------------------------| 
B |------------------------------------------------------------------| 
G |---5-----5-----------------------------------------5-----5--------| 
D |---5-----5-----5-----5-----7-----7-----3-----3-----5-----5-----5--| 
A |---3-----3-----5-----5-----7-----7-----3-----3-----3-----3-----5--| 
E |---------------3-----3-----5-----5-----1-----1-----------------3--| 
again . . . . . . . . . . . . . youíre doing it again . . . . . 

e |------------------------------------------------------------------| 
B |------------------------------------------------------------------| 
G |--------------------------------------9---------------------------| 
D |----5-----7-----7-----3---------------9---------9-----------------| 
A |----5-----7-----7-----3---------------7---------9-----------------| 
E |----3-----5-----5-----1-------------------------7-----------------| 
. . . . . . . . . . . . . . . . . . . Iím not trying to bring 

e |------------------------------------------------------------------| 
B |------------------------------------------------------------------| 
G |--------------9--------------------------------------------9------| 
D |-----7--------9-------9-----------11----------7----9-------9------| 
A |-----7--------7-------9-----------11----------7----9-------7------| 
E |-----5----------------7-----------9-----------5----7--------------| 
you down. I just want you to see what is happening to me. 

e |------------------------------------------------------------------| 
B |------------------------------------------------------------------| 
G |----------------------------------9-------------------------------| 
D |---------9---------7--------------9-----------9-------------------| 
A |---------9---------7--------------7-----------9-------------------| 
E |---------7---------5--------------------------7-------------------| 
Iím not trying to bring you down. Just understand that I was 

e |------------------------------------------------------------------| 
B |------------------------------------------------------------------| 
G |---------------------------9----------------9----------------9----| 
D |-7-------------9-----------9--9--11-7-7-----9--9--11-7-7-----9--9-| 
A |-7-------------9-----------7--9--11-7-7-----7--9--11-7-7-----7--9-| 
E |-5-------------7--------------7--9--5-5--------7--9--5-5--------7-| 
blind but Iím learning to see. 

e |-------------------------------| 
B |-------------------------------| 
G |-------------------------------| 
D |-11-7-7-----4-4-4-4--7-7-7-7---| 
A |-11-7-7-----4-4-4-4--7-7-7-7---| 
E |-9--5-5-----2-2-2-2--5-5-5-5---| 

e |------------------------------------------------------------------| 
B |------------------------------------------------------------------| 
G |-5----------------------------------------------------------------| 
D |-5-------------------5---------------------7----------------------| 
A |-3-------------------5---------------------7----------------------| 
E |---------------------3---------------------5----------------------| 
Iíve run enough from what I know is right, the sands of 

e |------------------------------------------------------------------| 
B |------------------------------------------------------------------| 
G |-------------------------------------------------------5--5--5--5-| 
D |---------------3-------------------5-------------------5--5--5--5-| 
A |---------------3-------------------5-------------------3--3--3--3-| 
E |---------------1-------------------3------------------------------| 
yesterday are sliding through the clutched fingers of life Iím 

e |------------------------------------------------------------------| 
B |------------------------------------------------------------------| 
G |-5--5--5--5--5--5--5--5--5----------------------------------------| 
D |-5--5--5--5--5--5--5--5--5--5--5--5--5--5--5--5--5--5--5--5--7--7-| 
A |-3--3--3--3--3--3--3--3--3--5--5--5--5--5--5--5--5--5--5--5--7--7-| 
E |----------------------------3--3--3--3--3--3--3--3--3--3--3--5--5-| 
not saying that the fun is gone, or the times we had are in vain. 

e |------------------------------------------------------------------| 
B |------------------------------------------------------------------| 
G |------------------------------------------------------------------| 
D |-7--7--7--7--7--7--7--7--7--7--7--7--3--3--3--5--5--5--5--5--5----| 
A |-7--7--7--7--7--7--7--7--7--7--7--7--3--3--3--5--5--5--5--5--5----| 
E |-5--5--5--5--5--5--5--5--5--5--5--5--1--1--1--3--3--3--3--3--3----| 
Thereís a break in the wilderness, my narrow path is clearing 

e |------------------------------------------------------------------| 
B |------------------------------------------------------------------| 
G |---5-----5-----------------------------------------5-----5--------| 
D |---5-----5-----5-----5-----7-----7-----3-----3-----5-----5-----5--| 
A |---3-----3-----5-----5-----7-----7-----3-----3-----3-----3-----5--| 
E |---------------3-----3-----5-----5-----1-----1-----------------3--| 
again . . . . . . . . . . . . . is clearing once again . . . . . 

e |------------------------------------------------------------------| 
B |------------------------------------------------------------------| 
G |--------------------------------------9---------------------------| 
D |----5-----7-----7-----3---------------9---------9-----------------| 
A |----5-----7-----7-----3---------------7---------9-----------------| 
E |----3-----5-----5-----1-------------------------7-----------------| 
. . . . . . . . . . . . . . . . . . . Iím not trying to bring 

e |------------------------------------------------------------------| 
B |------------------------------------------------------------------| 
G |--------------9--------------------------------------------9------| 
D |-----7--------9-------9-----------11----------7----9-------9------| 
A |-----7--------7-------9-----------11----------7----9-------7------| 
E |-----5----------------7-----------9-----------5----7--------------| 
you down. I just want you to see what is happening to me. 

e |------------------------------------------------------------------| 
B |------------------------------------------------------------------| 
G |----------------------------------9-------------------------------| 
D |---------9---------7--------------9-----------9-------------------| 
A |---------9---------7--------------7-----------9-------------------| 
E |---------7---------5--------------------------7-------------------| 
Iím not trying to bring you down. Just understand that I was 

e |------------------------------------------------------------------| 
B |------------------------------------------------------------------| 
G |---------------------------9----------------9----------------9----| 
D |-7-------------9-----------9--9--11-7-7-----9--9--11-7-7-----9--9-| 
A |-7-------------9-----------7--9--11-7-7-----7--9--11-7-7-----7--9-| 
E |-5-------------7--------------7--9--5-5--------7--9--5-5--------7-| 
blind but Iím learning to see. 

e |-------------------------------| 
B |-------------------------------| 
G |-------------------------------| 
D |-11-7-7-----4-4-4-4--7-7-7-7---| 
A |-11-7-7-----4-4-4-4--7-7-7-7---| 
E |-9--5-5-----2-2-2-2--5-5-5-5---| 

SOLO GUITAR: 
e |-----3-------------------3-------------------3--------------------| 
B |---------3-------------------3-------------------3----------------| 
G |-5---------5---------5---------5---------5---------5--------------| 
D |------------------------------------------------------------------| 
A |------------------------------------------------------------------| 
E |------------------------------------------------------------------| 

e |------3-----------------------------------------------------------| 
B |------------------------------------------------------------------| 
G |-5----------------------------------------------------------------| 
D |--------------------------------5---5--7--5--3--5---------3-------| 
A |--------------3--5--7--5--3---------------------------7------7--5-| 
E |----------3-------------------------------------------------------| 

e |------------------------------------------------------------------| 
B |------------------------------------------------------------------| 
G |-------5---5---5---5----------------------------------------------| 
D |-------5---5---5---5---5---5---5---5---7---7---7---7---3---3---5--| 
A |-------3---3---3---3---5---5---5---5---7---7---7---7---3---3---5--| 
E |-7---------------------3---3---3---3---5---5---5---5---1---1---3--| 

e |------------------------------------------------------------------| 
B |------------------------------------------------------------------| 
G |-----5---5---5---5------------------------------------------------| 
D |-5---5---5---5---5---5---5---5---5---7---7---7---7---3---3---5---5| 
A |-5---3---3---3---3---5---5---5---5---7---7---7---7---3---3---5---5| 
E |-3-------------------3---3---3---3---5---5---5---5---1---1---3---3| 


e |----------------------------| 
B |----------------------------| 
G |-9--------------------------| 
D |-9--------9-----------------| 
A |-7--------9-----------------| 
E |----------7-----------------| 
Iím not trying to bring 

e |------------------------------------------------------------------| 
B |------------------------------------------------------------------| 
G |--------------9--------------------------------------------9------| 
D |-----7--------9-------9-----------11----------7----9-------9------| 
A |-----7--------7-------9-----------11----------7----9-------7------| 
E |-----5----------------7-----------9-----------5----7--------------| 
you down. I just want you to see what is happening to me. 

e |------------------------------------------------------------------| 
B |------------------------------------------------------------------| 
G |----------------------------------9-------------------------------| 
D |---------9---------7--------------9-----------9-------------------| 
A |---------9---------7--------------7-----------9-------------------| 
E |---------7---------5--------------------------7-------------------| 
Iím not trying to bring you down. Just understand that I was 

e |------------------------------------------------------------------| 
B |------------------------------------------------------------------| 
G |---------------------------9----------------9----------------9----| 
D |-7-------------9-----------9--9--11-7-7-----9--9--11-7-7-----9--9-| 
A |-7-------------9-----------7--9--11-7-7-----7--9--11-7-7-----7--9-| 
E |-5-------------7--------------7--9--5-5--------7--9--5-5--------7-| 
blind but Iím learning to see. 

e |------------------------------------------------------------------| 
B |------------------------------------------------------------------| 
G |---------------------------------------9------------------------9-| 
D |-11-7-7-----4-4-4-4--7-7-7-7--9-9-9-9--9------------------------9-| 
A |-11-7-7-----4-4-4-4--7-7-7-7--9-9-9-9--7------------------------7-| 
E |-9--5-5-----2-2-2-2--5-5-5-5--7-7-7-7-----------------------------| 


------------------------------------------------------------------------------





Comments


Popular Left Front Tire tabs & chords
Bring You Down Bass Tabs
Bring You Down 1 Tabs
Bring You Down 2 Tabs


Song lyrics



↑ Back to top | Tablatures and chords are parodies/interpretations of the original songs. You may use it for private study, scholarship, research or language learning purposes only
© 2014 AZChords.com Contact us | Privacy policy | DMCA | Add/correct tabs | Request tabs | Top 50 tabs