» » »

Left Front Tire, Bring You Down Tabs (ver.3)

Artists:  A B C D E F G H I J K L M N O P Q R S T U V W X Y Z # 

Bring You Down Tabs (ver.3)

Left Front Tire Tabs
Rating:
0/5 (0 votes)
Bring You Down lessons Tabs too difficult? Try these video lessons and learn fast
                Left Front Tire
"Bring You Down"
INTRO
e---------------------------------------------
b---------------------------------------------
g---------------------------------------------
d--10-------5---------7---------3~---5~----
a--10-------5---------7---------3~---5~----
e--8--------3---------5---------1~---3~----
VERSE
e----------------------------------------------------------------------------
b----------------------------------------------------------------------------
g----------------------------------------------------------------------------
d-101010101010101010--5555555555--7777777777--33333-55555----
a-101010101010101010--5555555555--7777777777--33333-55555----
e--8-8-88-8-8-8-8-8---3333333333--5555555555--11111-33333----
PRE-CHORUS
e--------------------------------------------------------------------------------
b--------------------------------------------------------------------------------
g--------------------------------------------------------------------------------
d-1010-10--101010-----55-5----55-5---77-7-----77-7-----33-3----33-3----
a-1010-10--101010-----55-5----55-5---77-7-----77-7-----33-3----33-3----
e--8-8--8---8--8------33-3----33-3---55-5-----55-5-----11-1----11-1----
   . .     . .        ..      ..     ..       ..       ..      ..
e--------------------------------------------------------------------------------
b--------------------------------------------------------------------------------
g--------------------------------------------------------------------------------
d-1010-10--101010-----55-5----55-5---77-7-----77-7-----55-5----33-3----
a-1010-10--101010-----55-5----55-5---77-7-----77-7-----33-3----33-3----
e--8-8--8--8-8--8-----33-3----33-3---55-5-----55-5-----11-1----11-1----
   . .     . .        ..      ..     ..       ..       ..      ..     
CHORUS
e-----------------------------------------------------------------------------
b-----------------------------------------------------------------------------
g-----------------------------------------------------------------------------
d-1010--10101010-----77----7777------55----5555-------55----5555----
a-1010--10101010-----77----7777------55----5555-------55----5555----
e--8-8---8-8-8-8-----55----5555------33----3333-------33----3333----

e--------------------------------------------------------------------------------
b--------------------------------------------------------------------------------
g--------------------------------------------------------------------------------
d-1010--10101010-----77----7777-----1010--10101010-----55----5555----
a-1010--10101010-----77----7777-----1010--10101010-----55----5555----
e--8-8---8-8-8-8-----55----5555------8-8---8-8-8-8-----33----3333----

e-----------------------------------------------------------------------------
b-----------------------------------------------------------------------------
g-----------------------------------------------------------------------------
d-1010--10101010-----77----7777------55----5555-------55----5555----
a-1010--10101010-----77----7777------55----5555-------55----5555----
e--8-8---8-8-8-8-----55----5555------33----3333-------33----3333----

e---------------------------------------------------------------------------------
b---------------------------------------------------------------------------------
g---------------------------------------------------------------------------------
d-1010--10101010----1010--10101010------77----7777------77----7777----
a-1010--10101010----1010--10101010------77----7777------77----7777----
e--8-8---8-8-8-8----8-8---8-8-8-8-------55----5555------55----5555----
POST  CHORUS
e-----------------------------------
b-----------------------------------
g--77-------------------------------
d--77---77-----99------5-5555----
a--55---77-----99------5-5555----
e-------55-----77------3-3333----

e-----------------------------------
b-----------------------------------
g--77-------------------------------
d--77---77-----99------5-5555----
a--55---77-----99------5-5555----
e-------55-----77------3-3333----

e-------------------------------------------------------------------------
b-------------------------------------------------------------------------
g--77---------------------------------------------------------------------
d--77---77-----99------5-5555--------------------------4~------5~----
a--55---77-----99------5-5555--------------------------4~------5~----
e-------55-----77------3-3333--------------------------2~------3~----
VERSE
e---------------------------------------
b---------------------------------------
g---------------------------------------
d-10~-----10~----10~----10~--------
a-10~-----10~----10~----10~--------
e--8~------8~-----8~-----8~---------

e----------------------------------------------------------------------------
b----------------------------------------------------------------------------
g----------------------------------------------------------------------------
d-101010101010101010--5555555555--7777777777--33333--55555---
a-101010101010101010--5555555555--7777777777--33333--55555---
e--8-8-88-8-8-8-8-8---3333333333--5555555555--11111--33333---
PRE-CHORUS
e--------------------------------------------------------------------------------
b--------------------------------------------------------------------------------
g--------------------------------------------------------------------------------
d-1010-10--101010-----55-5----55-5---77-7-----77-7-----55-5----33-3----
a-1010-10--101010-----55-5----55-5---77-7-----77-7-----33-3----33-3----
e--8-8--8--8-8--8-----33-3----33-3---55-5-----55-5-----11-1----11-1----
  ..       ..         ..      ..     ..       ..       ..      ..
e--------------------------------------------------------------------------------
b--------------------------------------------------------------------------------
g--------------------------------------------------------------------------------
d-1010-10--101010-----55-5----55-5---77-7-----77-7-----55-5----33-3----
a-1010-10--101010-----55-5----55-5---77-7-----77-7-----33-3----33-3----
e--8-8--8--8-8--8-----33-3----33-3---55-5-----55-5-----11-1----11-1----
   . .     . .        ..      ..     ..       ..       ..      ..
CHORUS
e-----------------------------------------------------------------------------
b-----------------------------------------------------------------------------
g-----------------------------------------------------------------------------
d-1010--10101010-----77----7777------55----5555-------55----5555----
a-1010--10101010-----77----7777------55----5555-------55----5555----
e--8-8--8-8-8-8------55----5555------33----3333-------33----3333----

e--------------------------------------------------------------------------------
b--------------------------------------------------------------------------------
g--------------------------------------------------------------------------------
d-1010--10101010-----77----7777-----1010--10101010-----55----5555----
a-1010--10101010-----77----7777-----1010--10101010-----55----5555----
e--8-8--8-8-8-8------55----5555------8-8---8-8-8-8-----33----3333----

e-----------------------------------------------------------------------------
b-----------------------------------------------------------------------------
g-----------------------------------------------------------------------------
d-1010--10101010-----77----7777------55----5555-------55----5555----
a-1010--10101010-----77----7777------55----5555-------55----5555----
e--8-8--8-8-8-8------55----5555------33----3333-------33----3333----

e---------------------------------------------------------------------------------
b---------------------------------------------------------------------------------
g---------------------------------------------------------------------------------
d-1010--10101010----1010--10101010------77----7777------77----7777----
a-1010--10101010----1010--10101010------77----7777------77----7777----
e--8-8--8-8-8-8------8-8---8-8-8-8------55----5555------55----5555----
POST  CHORUS
e-----------------------------------
b-----------------------------------
g--77-------------------------------
d--77---77-----99------5-5555----
a--55---77-----99------5-5555----
e-------55-----77------3-3333----

e-----------------------------------
b-----------------------------------
g--77-------------------------------
d--77---77-----99------5-5555----
a--55---77-----99------5-5555----
e-------55-----77------3-3333----

e-----------------------------------------------------------------------------------------
b-----------------------------------------------------------------------------------------
g--77-------------------------------------------------------------------------------------
d--77---77-----99------5-5555--------------------------4~------5~----555555---10----
a--55---77-----99------5-5555--------------------------4~------5~----555555---10----
e-------55-----77------3-3333--------------------------2~------3~----333333----8----
                                                                                                          SOLO (sorta)
e-----7--5------
b--7-------5----
g----------------  (x8)
d----------------
a----------------
e----------------

e-----------------------------------------------------------------------------------------
b-----------------------------------------------------------------------------------------
g--7---7/5----9---7----5----------12~---14---12--11---12~----11----12---11---9----7----
d--x---x/x----x---x----x-----------x~----x----x---x----x~-----x-----x----x---x----x---
a--5---5/3----7---5----3----------10~---12---10---9---10~-----9-----10---9---7----5----
e-----------------------------------------------------------------------------------------

e----------------------------------------------------------------------------------
b----------------------------------------------------------------------------------
g----------------------------------------------------------------------------------
d-1010-10--1010-10--1010-10--1010-10---55-5----55-5----55-5----55-5----
a-1010-10--1010-10--1010-10--1010-10---55-5----55-5----55-5----55-5----
e--8-8--8---8-8--8---8-8--8---8-8--8---33-3----33-3----33-3----33-3----
   ..       ..       ..       ..       ..      ..      ..      ..
e--------------------------------------------------------------------------
b--------------------------------------------------------------------------
g--------------------------------------------------------------------------
d--77-7----77-7----77-7----77-7----33-3----33-3----55-5----55-5----
a--77-7----77-7----77-7----77-7----33-3----33-3----55-5----55-5----
e--55-5----55-5----55-5----55-5----11-1----11-1----33-3----33-3----
   ..      ..      ..      ..      ..      ..      ..      ..
e------------------------------------------------------------------------------------
b------------------------------------------------------------------------------------
g--9p0--9p0--9p0--9p0------9p0--9p0--9p0--9p0------9p0--9p0--9p0--9p0----
d------------------------------------------------------------------------------------
a------------------------------------------------------------------------------------
e------------------------------------------------------------------------------------

e-------------------------------
b-------------------------------
g--9p0--9p0--9999999999----
d-------------------------------
a-------------------------------
e-------------------------------
CHORUS
e-----------------------------------------------------------------------------
b-----------------------------------------------------------------------------
g-----------------------------------------------------------------------------
d-1010--10101010-----77----7777------55----5555-------55----5555----
a-1010--10101010-----77----7777------55----5555-------55----5555----
e--8-8--8-8-8-8------55----5555------33----3333-------33----3333----

e--------------------------------------------------------------------------------
b--------------------------------------------------------------------------------
g--------------------------------------------------------------------------------
d-1010--10101010-----77----7777-----1010--10101010-----55----5555----
a-1010--10101010-----77----7777-----1010--10101010-----55----5555----
e--8-8--8-8-8-8------55----5555------8-8--8-8-8-8------33----3333----

e-----------------------------------------------------------------------------
b-----------------------------------------------------------------------------
g-----------------------------------------------------------------------------
d-1010--10101010-----77----7777------55----5555-------55----5555----
a-1010--10101010-----77----7777------55----5555-------55----5555----
e--8-8--8-8-8-8------55----5555------33----3333-------33----3333----

e---------------------------------------------------------------------------------
b---------------------------------------------------------------------------------
g---------------------------------------------------------------------------------
d-1010--10101010----1010--10101010------77----7777------77----7777----
a-1010--10101010----1010--10101010------77----7777------77----7777----
e--8-8--8-8-8-8------8-8---8-8-8-8------55----5555------55----5555----

e------------------------------
b------------------------------
g------------------------------
d--77777777--77777777----
a--77777777--77777777----
e--55555555--55555555----
    pm..............pm 
POST  CHORUS
e-----------------------------------
b-----------------------------------
g--77-------------------------------
d--77---77-----99------5-5555----
a--55---77-----99------5-5555----
e-------55-----77------3-3333----

e--------------------------------------------------------------------
b--------------------------------------------------------------------
g--77---------------------------------------------------------------
d--77---77-----99------5-5555------4~---5---9---2~------22----
a--55---77-----99------5-5555------4~---5---9---2~------22----
e-------55-----77------3-3333------2~---3---7---0~------00----
            

comments powered by Disqus
↑ Back to top | Left Front Tire Tabs for Bring You Down. Lyrics for acoustic guitar and electric guitar. Tablatures and chords are parodies/interpretations of the original songs. You may use it for private study, scholarship, research or language learning purposes only