» » »

Led Zeppelin, When The Levee Breaks Tabs (ver.1)

Artists:  A B C D E F G H I J K L M N O P Q R S T U V W X Y Z # 

When The Levee Breaks Tabs (ver.1)

Led Zeppelin Tabs
 Rating:
4/5 (4 votes)
When The Levee Breaks lessons Tabs too difficult? Try these video lessons and learn fast
1
                Intro (:07)
-----------------------------------------|
-----------------------------------------|
----------0---0-0---------3p0-----5-5----|
-3p0-0-0—-0---0-0—3p0—-0—-3p0—-0—-5-5----|
-3p0-0-0—-0---0-0—3p0—-0—-3p0—-0—-5------|
-----------------------------------------|

(:20) and (3:05)                              [play 3x]
--------------------------------------------------------|
--------------------------------------------------------|
-----------0---0-0-3p0-0---0-0---------0-0----------0-5-|
-----0---0-0-0-----3p0-0-0---------0-0-0-0—-3p0-0-3-0-5-|
-3p0-0---0---------------------3p0-0-0-0----3p0-0-3-0-5-|
--------------------------------------------------------|

Play this  3x
<<<<<
---------------------------------------------|
---------------------------------------------|
-----------0---0-0-------------------0---5-5-|
-----0---0-0---0-0-------0-3p0---0---0---5-5-|
-3p0-0-----0---0-0—-3p0—-0-3p0---0---0---5---|
---------------------------------------------|

----------------------------------------|
----------------------------------------|
------0-----0---0-0------0-----0---0-0--|
------0—-0—-0---0-0------0---0-0---0-0--|
--3p0-0—-0—-0---0-0—3p0—-------0---0-0--|
----------------------------------------|
                                        >>>>>
----------------------------------------------|
----------------------------------------------|
------0-----0---0-0---3p0-----3p0—-0---0-5-5--|
--3p0-0—-0—-0---0-0---3p0—-0—-3p0—-0---0-5----|
--3p0-0—-0—-0---------3p0—-0—-3p0—-0---0-5----|
----------------------------------------------|

(1:08, 3:50) It sounds a lot better if you use a slide
for the beginning of this part (2X)
-/8-8-8-8-8-8-8—-8/10-10-10-10-0-0---5-3---5-0---5-3--5-0-|
-/8-8-8-8-8-8-8—-8/10-10-10-10-0-0---5-3---5-0---5-3--5-0-|
-/8-8-8-8-8-8-8—-8/10-10-10-10-0-0---5-3---5-0---5-3—-5-0-|
-/8-8-8-8-8-8-8—-8/10-10-10-10-------5-3---5-0---5-3—-5-0-|
----------------------------------------------------------|
----------------------------------------------------------|

Bridge (2:25)
---0----12-12-----0---7-7------0---5-5---7-10-12--|
---0----12-12-----0---7-7------0---5-5---7-10-12--|
---0----12-12-----0---7-7------0---5-5---7-10-12--|
-------------------------------------------10-12--|
--------------------------------------------------|
--------------------------------------------------|

During the same part (2nd Time)
-12---12/10------12~~~---7/5----7~~~~--5/3----5-7-10-12-|
-------------12---------------7------------5------------|
--------------------------------------------------------|
--------------------------------------------------------|
--------------------------------------------------------|
--------------------------------------------------------|

During “Ahh………Ahh………Ahh”
-12/10-----17~~~-12/10----------12/10-----17—15-15-15/17~~|
-------12--------------12/10~~~--------12-----------------|
----------------------------------------------------------|
----------------------------------------------------------|
----------------------------------------------------------|
----------------------------------------------------------|
            
Submit corrections

comments powered by Disqus
↑ Back to top | Led Zeppelin Tabs for When The Levee Breaks. Lyrics for acoustic guitar and electric guitar. 1 Tablatures and chords are parodies/interpretations of the original songs. You may use it for private study, scholarship, research or language learning purposes only