» » »

Led Zeppelin, The Rover Tabs (ver.1)

Artists:  A B C D E F G H I J K L M N O P Q R S T U V W X Y Z # 

The Rover Tabs (ver.1)

Led Zeppelin Tabs
Rating:
0/5 (0 votes)
The Rover lessons Tabs too difficult? Try these video lessons and learn fast
                solo From: "Alain Gaonac'h" 

solo.......


"That's right!...
-----------------------------------
-----------7-----------------------
---------9------------------2-4-6--
-----7h9-----------------/4--------
--7h9--------------0h2h4-----------
---------------0h2-----------------


--------------------------------7-9
4h6p4-------5-7---9h10p9-7-9-10----
------7--/6------------------------
-----------------------------------
-----------------------------------
-----------------------------------

-7---------------------------------
---10-10b12--10p7------------------
------------------9--------9h11--11
----------------------9h11---------
-----------------------------------
-----------------------------------

(fasten your seat belts)
-----------------------------------
-----------9-10-9h10p9----9h10h12--
------9h11-------------11----------
-9h11------------------------------
-----------------------------------
-----------------------------------

9----------------------------------
--12-10-9-10-9h10h9----9-----------
--------------------11---11p9------
-----------------------------------
-----------------------------------
-----------------------------------

-----------------------------------
-----------------------------------
11/9---9----------------------9-9-9
-----11--11/9----9p7-7-4h7-7/9-----
--------------12-------------------
-----------------------------------

-----------------------------------
-----------------------------------
9-9-----9-9-9-9-9------9-9-9-9-9---
-----7/9-----------7/9-------------
-----------------------------------
-----------------------------------

Sharp part:
---------14-------17-14------------
------14----17b19-------(17)b19rb17
16b18------------------------------
-----------------------------------
-----------------------------------
-----------------------------------


---17----------------17------------
14---(17)b19rb17--14---(17)b19rb17-
-----------------------------------
-----------------------------------
-----------------------------------
-----------------------------------

-----------------------------------
14--14-----------------------------
-------16-14-----------------------
-------------16-14-----------------
-----------------------------------
-----------------------------------

Notation legend:
h: hammer
p: pull off
b: bend
rb: release bend
/: slide
(): ghost note





Verse 3-

Same as Verses before.


Chorus 3- 

Same as Choruses before.












Verse 4-  (and outro)
            I am starting this at the end of the vocals.

---------0-----([2] ^ 4)---([2] ^ 4)--([2] ^ 4)--0--0--------0--0---(0 + 1)
------------2------------------------------------------2--2-------2--------
----0----------------------------------------------------------------------


   (3x)            |
-------------------|-------------------------------------------------------
-------------------|-------------------------------------------------------
--0--0---(0 + 1)---|------------------------------------0--0--0--0---------
-------2-----------|--0--0--0--2----------0--0--0--2----------------2------
-------------------|-------------------------------------------------------
-------------------|-------------------------------------------------------
                   |




    (3x)
---(0 + 2)--(0 + 2)--(0 + 2)-----------------------------------------------
------------------------------2--2-----------------------------------------


   (4x)
------------0--0----------------0------(0 + 2)-----------------------------
---(0 + 2)-------------(0 + 2)-----2------------2--------------------------





      etc
-------------12--12-------------------12-------(12 + 14)-------------------
-------------12--12-------------------12-------(12 + 14)-------------------
--(12 + 14)----------------(12 + 14)------14--------------12---------------



Keywords:
            

comments powered by Disqus
↑ Back to top | Led Zeppelin Tabs for The Rover. Lyrics for acoustic guitar and electric guitar. Tablatures and chords are parodies/interpretations of the original songs. You may use it for private study, scholarship, research or language learning purposes only