» » »

Led Zeppelin, Tangerine Tabs (ver.3)

Artists:  A B C D E F G H I J K L M N O P Q R S T U V W X Y Z # 

Tangerine Tabs (ver.3)

Led Zeppelin Tabs
Rating:
0/5 (0 votes)
Hard to play? Try these video lessons and learn fast.
                Tangerine - Led Zep III

--------------3--3--2--2--2-----2-------------3--3--2--2--(2)--
--1--3--1--0--0--0--3--3--3--3--3--1--3--1--0-0--0--3--3--(3)--
--2--2--2--2--0--0--2--2--2-----2--2--2--2--2-0--0--2--2--(2)--
--2--2--2--2--0--0-----------------2--2--2--2-0--0-------------
--0-----------2--2-----------------0----------2--2-------------
--------------3--3----------------------------3--3-------------



--------------------------------------------------3--3--2--2---
--1--1-----1---------------------------1----1--1--0--0--3--3---
--0--0-----0-----------0-----------0---2----2--2--0--0--2--2---
--2--2--2--------2--2--------0--0------2----2--2--0--0---------
--3--3--3-----3------------2-----------0----0--0--2--2---------
--------------------------------------------------3--3---------


---2--2--2----3--2---0-----2-----
---3--3--3----3--3---3-----3-----
---2--2--2----2--2---2-----2-----
---------------------------------
---------------------------------
---------------------------------

sUBMITTED BY gREENDAY TABMAN
            

comments powered by Disqus
↑ Back to top | Led Zeppelin Tabs for Tangerine. Lyrics for acoustic guitar and electric guitar. Tablatures and chords are parodies/interpretations of the original songs. You may use it for private study, scholarship, research or language learning purposes only