>
 >
Since Ive Been Loving You Live

Since Ive Been Loving You Live Guitar Tabs

Led Zeppelin - Since Ive Been Loving You Live chords, tabs, tablatures, lyrics

Guitar lessons | Add/correct | Request | Top 50 tabs Artists:  A B C D E F G H I J K L M N O P Q R S T U V W X Y Z 0-9

Since Ive Been Loving You Live Guitar Tabs – Led Zeppelin

CD, Sheet music, Poster

Do you like Since Ive Been Loving You Live? Share with your friends now
TabsTabs v2Tabs v3
               ''Since I've been loving you live(TSRTS)''


                  Amp settings are..Bass,3.Middle,8.treble,9.(reverb)7
=============================================================
(BASH!)
|------------------------------------8----------------------------------|
|-----------------------------------8--11--8~---------------------------|
|-------------------8hp10----8-10b12----------10-8----10--8-------------|
|--------------8h10-------10-----------------------10--------10--8-10~--|
|-------8h910-----------------------------------------------------------|
|--8h11-----------------------------------------------------------------|

|------------------------------------------------8------------------------------8-8/|
|-----------------------------------------------8---11p8----------------------8-----|
|--------------------------------8hp10----8--10b---------10-8-10--------10b12-------|
|--8hp10------------------8-8h10-------10-------------------------8~----------------|
|--------10--8--6hp8--/10-----------------------------------------------------------|
|-----------------------------------------------------------------------------------|

(Tempo slows down)
|-------11-----11--13b15-13b15---13p11---------------15--16--15hp16---10-10---------|
|---13-----13--------------------------13~----------x-------------------------------|
|--------------------------------------------------x--------------------------------|
|-------------------------------------------------x---------------------------------|
|-----------------------------------------------------------------------------------|
|-----------------------------------------------------------------------------------|

|--------------------------------11hphphphphph13---11~-11b13---------11-------------|
|-15p13----------------------13--------------------------------13p11-----13--13~----|
|--------15p12---10-10~-------------------------------------------------------------|
|-----------------------------------------------------------------------------------|
|-----------------------------------------------------------------------------------|
|-----------------------------------------------------------------------------------|

|----15-16-15hp16--------------10-11-10hp11--------10~----------11-------------------|
|---x-------------10-10~------x-------------8-8~---8~----10--13-----13p10---13b15-11/|
|--x-------------------------x-------------------------------------------------------|
|-x-------------------------x--------------------------------------------------------|
|------------------------------------------------------------------------------------|
|------------------------------------------------------------------------------------|

(Neck pickup)
|----8---11--10--8-----10--8---------------------------------------------------------|
|--9---------------9~---------9-9~--8-8~---------------------------------------------|
|----------------------------------------10-10~--8-8~--------------------------------|
|-----------------------------------------------------10-10~--8-8~-------------------|
|-------------------------------------------------------------------10-10~---8-8~----|
|------------------------------------------------------------------------------------|

                                            (volume up)
|--------------------------------------------------------------------------11----------|
|-----------------------------------------------------------------------11-----13--13~-|
|---------------------------------------------------8----------------12----------------|
|-------------------------------4~-3~----------8h10---10-10~---------------------------|
|-6~--8~-8/10--8~--------------------------/10-----------------------------------------|
|-----------------------2~-1-----------------------------------------------------------|

|-11--------11-13bbbb--13p11-------------------8---------------------------------------|
|----13-13~------------------13-13~----------8----11--8--------------------------------|
|--------------------------------------12b14---------------10b12--10p8--10p8-----------|
|-----------------------------------------------------------------------------10--10---|
|--------------------------------------------------------------------------------------|
|--------------------------------------------------------------------------------------|

|----------------------------------------------------8~--------------------------------|
|-------------------------------------------------------------11p8------11p8-----------|
|------------------------------------8--------10b12----------------10--------10--------|
|--8--10-----------8hp10------8hp10-----10---------------------------------------------|
|---------10p8/6----------10-----------------------------------------------------------|
|--------------------------------------------------------------------------------------|

|-------------------11--13b15--13b15~~-----------------11----------------11------------|
|----------------13-----------------------9--11--11b13----11p13----11b13----13p11------|
|--10~/12~--12-------------------------------------------------------------------------|
|--------------------------------------------------------------------------------------|
|--------------------------------------------------------------------------------------|
|--------------------------------------------------------------------------------------|

|------11------------13b15--13b15~-------------11-------------------------8------------|
|-9b11-----11--9~--------------------13p11--------13-13~----------------8-----11p8-----|
|------------------------------------------12---------------------10b12----------------|
|--------------------------------------------------------------------------------------|
|--------------------------------------------------------------------------------------|
|--------------------------------------------------------------------------------------|

|---------------------------------------------------------------11-13--11hp13----------|
|------------------------------------------------------------------------------13-13~--|
|-10p8-----10--8---------------------------8hp10------8/10~/12~------------------------|
|------10--------10p8----------------8h10--------10------------------------------------|
|----------------------10p8/6/8hp10----------------------------------------------------|
|--------------------------------------------------------------------------------------|

|--------------------------------------------------------------------------------------|
|---15b16--15b16--15b16--13~----15b16---15b16--15b16--13--15b16p13--11--13~//----------|
|--------------------------------------------------------------------------------------|
|--------------------------------------------------------------------------------------|
|--------------------------------------------------------------------------------------|
|--------------------------------------------------------------------------------------|



(ahhhhhhh ive been working..)                          (baby to eleven.)
|----------------------------------8-----8---------------------------------------------|
|----------------------------------9-----9---------------------------------------------|
|----------------------------------10----10--------------------------8-----------------|
|----------------------------------10-------------------------------------10--10~------|
|----------------------------------8--------------------------8--10--------------------|
|--------------------------------------------------------------------------------------|

(drag.drag..)                                                 (best.best..of)
|---------11--13b15-13b15--13p11-----------------------------------------------------|
|-----13-------------------------13-13~----11-9--11-9-9~-----------------------------|
|------------------------------------------------------------------------------------|
|------------------------------------------------------------------------------------|
|------------------------------------------------------------------------------------|
|------------------------------------------------------------------------------------|
                                                   
                                               (oh yes i did.)
|--------------------------------------------------------------------------------|
|----9-9--8-8-----------------------------------------------------11b13--11-8~---|
|--------------10-10-8-8---------------------------------------------------------|
|-------------------------10-10--8-8---------------------------------------------|
|-------------------------------------10--8/6/8b~--------------------------------|
|--------------------------------------------------------------------------------|

                         (oh i love.)                          
|-------------------------------------------------------------------------|
|-------------------------------------------------------------------------|
|-10b12--10--8~-------------------------------8b--------------------------|
|----------------10-10~------------------8h10----10-10~--10-10~-----------|
|-----------------------------------/10~----------------------------------|
|-------------------------------------------------------------------------|

|--------------------------------------------------------------------------|
|---------------------------------------8-------8-------8-------8----------|
|-----------8b---------------------10b12---10b12---10b12---10b12---10-8----|
|------8h10----10-10~--10-10~-------------------------------------------10-|
|--/10---------------------------------------------------------------------|
|--------------------------------------------------------------------------|

|--------------------------------------------------------------------------|
|--------------------------------------------------------------------------|
|--------------------------------------------------------------------------|
|---5-----5---5------5p3p0--5p3p0--5p3p0------5--5--6~---6/8~/6---5---3----|
|---5-----5---5------------------------------------------------------------|
|---3-----3---3-------------------------------3--3--4~---4/6~/4---3---1----|

|--------------------------------------------------------------------------|
|--------------------------------------------------------------------------|
|--------------------5~----4~---5~/6/5~---------------5--5b7~---5~---------|
|-3/5~--3---5~------------------------------5~----4~-----------------------|
|--------------------6~----5~---6~/8/6~------------------------------------|
|-1/3~--1---3~------------------------------6~----5~-----------------------|

                                        (every body..)
|-------------------------------------------------------------------|
|-------------------------------------------------------------------|
|--------------5---5b7-5~------------------------------/17\10/17/---|
|-4~-----3~---------------------------------------------------------|
|------------------------------1--2--3~-----------------------------|
|-5~-----4~-----------------3---------------------------------------|

                                         (I've tried.)
|-----------------------------------------------------|
|-----------------------------------------------------|
|-----------------------------------------------------|
|---------------------4~--3---------------------------|
|--8b10-8--------------------------1-2-3~-------------|
|-------------2~-1---------------3--------------------|

|------------------------------------------------------------------|
|------------------------------------------------------------------|
|-5-5--7-7-----7-7--8---8-----8--8---10-10---10-10--12-12----------|
|------------------------------------------------------------------|
|-6-6--8-8-----8-8--10-10----10-10---11-11---11-11--13-13----------|
|------------------------------------------------------------------|

                                                (I've been working..)
|--------------11-10-8----------------------------------------------|
|----------------------8---9~---8--8hp9-----------------------------|
|-13-13-13------------------------------10-10~----------------------|
|-------------------------------------------------------------------|
|-15-15-15----------------------------------------------------------|
|-------------------------------------------------------------------|

                                                       (oh.baby to..)
|-------------------------------------------------------------------|
|-9-9--8-8----------------------------------------------------------|
|-----------10-10--8-8----------------------------------------------|
|-----------------------10-10--8-8----------------------------------|
|-----------------------------------10p8/6--8--8b10-8~--------------|
|-------------------------------------------------------------------|

                          (yes its a drag..)
|-----------------------------------------------------------------------|
|--------------------------------------------11b13--11--8---------------|
|--10b12~-----10p8-----------------------------------------10b12-10-----|
|------------------10-10~------------------------------------------10-10|
|-----------------------------------------------------------------------|
|-----------------------------------------------------------------------|

       (bridge pickup)
|-xxx------------------------------------------------------------------|
|-xxx------------------------------------------------------------------|
|-xxx----------------------8---------------------8---------------------|
|-xxx----------------8--10---10-10~---------8-10----10-10~-------------|
|-xxx------------/10--------------------/10----------------------------|
|----------------------------------------------------------------------|

|-----------8--------------------------------------------------------|
|---------8----11p8--------------------------------------------------|
|---10b12------------10b12--10--8------------------------------------|
|-----------------------------------10--10~--------------------------|
|--------------------------------------------------------------------|
|--------------------------------------------------------------------|


|--------------------------------------------------------------------------|
|--------------------------------------------------------------------------|
|--------------------------------------------------------------------------|
|---5-----5---5------5p3p0--5p3p0--5p3p0------5--5--6~---6/8~/6---5---3----|
|---5-----5---5------------------------------------------------------------|
|---3-----3---3-------------------------------3--3--4~---4/6~/4---3---1----|


                      (strum with fingers)
|--------------------------------------------------------------------------|
|--------------------------------------------------------------------------|
|--------------------5~----4~---5~/6/5~---------------5--5b7~---5~---------|
|-3/5~--3---5~------------------------------5~----4~-----------------------|
|--------------------6~----5~---6~/8/6~------------------------------------|
|-1/3~--1---3~------------------------------6~----5~-----------------------|


|----------------------------------------------------|
|----------------------------------------------------|
|----------5--5b7~-5-------SOLO!---------------------|
|--4--3----------------------------------------------|
|----------------------------------------------------|
|--5--4----------------------------------------------|


|-----------8------------------------------------------------------8----------|
|---------8----11p8-----------------------------------------------------------|
|---10b12------------10b12--10p8------------------------------8hp10-----10b12~|
|--------------------------------10--10--8hp10--------8hp10-10-------10-------|
|----------------------------------------------10hp8--------------------------|
|-----------------------------------------------------------------------------|

|---8--11--10--8---10~------8--11-10--8---10~-------8--11--10-8---10~-----|
|--x-------------9---------x------------9----------x------------9---------|
|-x-----------------------x-----------------------x-----------------------|
|x-----------------------x-----------------------x------------------------|
|-------------------------------------------------------------------------|
|-------------------------------------------------------------------------|

|-------------------------------------------------------------------------|
|--9-9-8-8----------------------------------------------------------------|
|----------10-10-8-8------------------------------------------------------|
|--------------------10-10-8-8--------------------------------------------|
|------------------------------10-10-8-8/6-----6hp8-----------------------|
|----------------------------------------------------8----------2b3-1~----|

|------------------------------------------------3----5-6--3h5h6----------|
|----------------------------------------------3-----------------5p3------|
|-----------------------------3hp5--------5b17----------------------------|
|----------1------1hp3-------------5-5------------------------------------|
|----1h2h3---3-3--------3-------------------------------------------------|
|-3-----------------------------------------------------------------------|

|-------------------------------------------------------------------------|
|--------------------------------3h4p3------------------------------------|
|-5p3--5b7-3-------3h5-----3--5---------5-5~------------------------------|
|-------------5p3------5-------------------------------------1-3-3~-------|
|----------------------------------------------------0h1h2h3--------------|
|-------------------------------------------------3-----------------------|

|-----------3----------3----------------------------------------------------|
|----------3--4p3----3----4p3-------------------------------------------/13-|
|------3h5--------5b----------5-5~-------------8hp10------------------------|
|--/5--------------------------------------10--------10-10--10p8------------|
|-----------------------------------------------------------------10-10-----|
|---------------------------------------------------------------------------|

|----15--16-15hp16--13-------11hp13----------------------11--13p11p13p11-13b15|
|---x------------------/16-----------13-13~-----------------------------------|
|--x-----------------------------------------10-10~---------------------------|
|-x---------------------------------------------------------------------------|
|-----------------------------------------------------------------------------|
|-----------------------------------------------------------------------------|

|-16b18--16p15p13---15h15--16p15p13/13h15---------13h15h16---16p15-15hp16/11h13p11|
|-----------------------------------------13-13-----------------------------------|
|---------------------------------------------------------------------------------|
|---------------------------------------------------------------------------------|
|---------------------------------------------------------------------------------|
|---------------------------------------------------------------------------------|

|-16b18--16p15p13--13h15h6----16p15p13---15hp16-------------------------|
|------------------------------------------------13--13~~----rest.------|
|-----------------------------------------------------------------------|
|-----------------------------------------------------------------------|
|-----------------------------------------------------------------------|
|-----------------------------------------------------------------------|

|------11--13-13b15---13p11----------------------8----------------------|
|--13-----------------------13-13~-------------8----11p8----------------|
|----------------------------------------10b12------------10-10p8-----8-|
|-----------------------------------------------------------------10----|
|-----------------------------------------------------------------------|
|-----------------------------------------------------------------------|

|----------------------8--------------------------------------------|
|--------------------8----11p8--------------------------xxx---------|
|--10ph8h10----10b12-------------10-----------8hp10--8--xxx10-------|
|-----------------------------------10-8-10-------------xxx10-------|
|-------------------------------------------------------xxx8--------|
|-------------------------------------------------------------------|

|-------------------------------------------------------------8-8---|
|-----------------------------------------------------------------x-|
|------8hp10---------------------------------------------8h10-----x-|
|-8h10-------10--10---8-------------------8h10-----8hp10----------x-|
|------------------------10p8hp10/6/8hp10------10-------------------|
|-------------------------------------------------------------------|

|-------------------------------------------------------------------|
|--11-11--11p8-------11-11--11p8------11-11--11p8--------8~---------|
|--------------9~----------------9~---------------9~----------------|
|-------------------------------------------------------------------|
|-------------------------------------------------------------------|
|-------------------------------------------------------------------|

|----------10---------13b15--13b15~-----------11hp13------11hp13----|
|-------11-----13-13----------------------13b---------13b-----------|
|---/12-------------------------------------------------------------|
|-------------------------------------------------------------------|
|-------------------------------------------------------------------|
|-------------------------------------------------------------------|

|------11--13p11-------11--13p11~-------16b18--16--15hp16/13---------|
|-13b--------------13b-----------------------------------------13-13~|
|--------------------------------------------------------------------|
|--------------------------------------------------------------------|
|--------------------------------------------------------------------|
|--------------------------------------------------------------------|

|-13--11--13---16b18--16p15p13h15h16--------11----------------18b20--|
|-------------------------------------13-13----13-13-----------------|
|--------------------------------------------------------------------|
|--------------------------------------------------------------------|
|--------------------------------------------------------------------|
|--------------------------------------------------------------------|

|---18p16/15--16hp15/13/11--13--13~-----13bbbbb15------11-----------|
|--------------------------------------------------13-----13-13~----|
|-------------------------------------------------------------------|
|-------------------------------------------------------------------|
|-------------------------------------------------------------------|
|-------------------------------------------------------------------|


(WHOO oh ive been cryin..)
|---------------------------------------------------------------------|
|------------------------------11--13--13bbbbbbbbb---13p11---11h13~/--|
|---------------------------------------------------------------------|
|---------------------------------------------------------------------|
|---------------------------------------------------------------------|
|---------------------------------------------------------------------|

(all my tears fell like rain.)
|-------------------------------------------------------------------|
|-------------------------------------------------------------------|
|------------------------------8----8-8-8-8-8--/--7-7-7-7-7-7-7-----|
|------------------------------8----8-8-8-8-8--/--7-7-7-7-7-7-7-----|
|------------------------------6----6-6-6-6-6--/--5-5-5-5-5-5-5-----|
|-------------------------------------------------------------------|

|---------------------------------------------------------------------|
|---------------------------------------------------------------------|
|--5~----4~----5/7/5/7/5------------------5-5b7~-5-----------5-5b7-5~-|
|------------------------------5~----4~--------------4~--3~-----------|
|--6~----5~----6/8/6/8/6----------------------------------------------|
|------------------------------6~----5~--------------5~--4~-----------|


|--------------8-10h-10----10-----11----11-----10--------|
|---------8-------------------8-8----------8-8----8--8\--|
|----8------------------8------------8-------------------|
|/10---10---10-------------------------------------------|
|--------------------------------------------------------|
|--------------------------------------------------------|

|--1-----1-----3----3-----4----4-----4----1-1--|
|----1-----1-1---1----1-1---1----1-----1----1--|
|------1---------------------------------------|
|3---------------------------------3--------3--|
|----------------------------------------------|
|----------------------------------------------|

|/8--8--8---10------10-----11----10--------8----10-|
|/8--8----8------8-----8-8----8-----8----8----8----|
|--------------8-----------------------------------|
|/10-10-------------------------------10-----------|
|--------------------------------------------------|
|--------------------------------------------------|


----12-----12----------------------12-------12-------12---------|
|/11----11-----11-----11----11\--------11-------11-------11--13--|
|------------------12----12-----12--------12-------12------------|
|----------------------------------------------------------------|
|----------------------------------------------------------------|
|----------------------------------------------------------------|

|--1----1-----3-3--3-----4-4--4-----3----3---|
|----1----1----------1----------1-----1----1-|
|--------------------------------------------|
|3----------3----------3----------3----------|
|--------------------------------------------|
|--------------------------------------------|

|--1----1-----3----3-----4-----1-----1----1---|
|----1----1-----1----1-----1-----1----------1-|
|---------------------------------------------|
|3----------3----------3-----3-----3---3------|
|---------------------------------------------|
|---------------------------------------------|


|1/8--8----8------10----10---11------/8-----11------------8-|
|1/8----8----8-------8-----8----8-------8-8----8--------8---|
|---------------------------------------------------10B-----|
|3/10----------10-----------------10-------------10---------|
|-----------------------------------------------------------|
|-----------------------------------------------------------|

(i dont,i dont..)
|--------------8----8hph10p8------8--8-11-10----8--11-10-----8--11--10--8----|
|------------8----------------8--------------8-----------10----------------10|
|------10b12-----------------------------------------------------------------|
|----------------------------------------------------------------------------|
|----------------------------------------------------------------------------|
|----------------------------------------------------------------------------|

|--------------------------------------|
|--11p8--------------------------------|
|--------10p8--8hp10-------------------|
|---------------------10--10/----------|
|--------------------------------------|
|--------------------------------------|



|--------------------------------------------------------------------------|
|--------------------------------------------------------------------------|
|--------------------------------------------------------------------------|
|---5-----5---5------5p3p0--5p3p0--5p3p0------5--5--6~---6/8~/6---5---3----|
|---5-----5---5------------------------------------------------------------|
|---3-----3---3-------------------------------3--3--4~---4/6~/4---3---1----|


                      (strum with fingers)
|--------------------------------------------------------------------------|
|--------------------------------------------------------------------------|
|--------------------5~----4~---5~/6/5~---------------5--5b7~---5~---------|
|-3/5~--3---5~------------------------------5~----4~-----------------------|
|--------------------6~----5~---6~/8/6~------------------------------------|
|-1/3~--1---3~------------------------------6~----5~-----------------------|


|------------------------------------------|
|------------------------------------------|
|----------5--5b7~-5-----------------------|
|--4--3------------------------------------|
|------------------------------------------|
|--5--4------------------------------------|


(not sure about this part..just strum, this chord)
|----8------------------|
|----9------------------|
|---10------------------|
|---10------------------|
|-----------------------|
|-----------------------|

|--1----1-----3-3--3-----4-4--4-----3----3---|
|----1----1----------1----------1-----1----1-|
|--------------------------------------------|
|3----------3----------3----------3----------|
|--------------------------------------------|
|--------------------------------------------|
===============================================

(Tempo slows down)
|------------------------------------------------------------------------|
|------------------------------------------------------------------------|
|---5~~------4~~-----5/7/5/7/5~------------------5--5b7~~-5--------------|
|----------------------------------5~-----4~-----------------------------|
|---6~~------5~~-----6/8/6/8/6~------------------------------------------|
|----------------------------------6~-----5~-----------------------------|

|------------------------------------------------------------------------|
|----------------------------------------8p7~~---------------------------|
|------------------5--5b7~-5-------------8p7~~----8hphphp7~~-------------|
|------4~-----3~-------------------------8p7~~----------------x----------|
|------------------------------------------------------------------------|
|------5~-----4~---------------------------------------------------------|





Comments


Popular Led Zeppelin tabs & chords
The Ocean 5 Bass Tabs
Heartbreaker Drum Tabs
Stairway To Heaven 1 Drum Tabs
Celebration Day 1 Tabs
Good Times Bad Times 1 Tabs
Hey Hey What Can I Do 4 Tabs
Kashmir Unplugged Intro Tabs
Moby Dick 4 Tabs
Tangerine 7 Tabs
White Summer 1 Tabs


Song lyrics



↑ Back to top | Tablatures and chords are parodies/interpretations of the original songs. You may use it for private study, scholarship, research or language learning purposes only
© 2014 AZChords.com Contact us | Privacy policy | DMCA | Add/correct tabs | Request tabs | Top 50 tabs