» » »

Led Zeppelin, Since I've Been Loving You Tabs (ver.2)

Artists:  A B C D E F G H I J K L M N O P Q R S T U V W X Y Z # 

Since I've Been Loving You Tabs (ver.2)

Led Zeppelin Tabs
 Rating:
4/5 (4 votes)
Since I've Been Loving You lessons Tabs too difficult? Try these video lessons and learn fast
1
                Content-Transfer-Encoding: 7BIT


SINCE I'VE BEEN LOVING YOU
Led Zeppelin


                (13)  ..  a ghost note, a continuation of a previously
                          played note into the current var.  I put

              /-3-\   ..  Notes directly under are triplets
                                                               Rest
So here it is:  (enjoy)                                        |
                                              /-3-\            V
||---|-8------|-8-|-11-10-8-10-11-|-10-8---10-8-----|--------|-------|
||-8-|---11-8-|---|---------------|------9------9-9-|-9-8----|-R-3-4-|
||---|--------|---|---------------|-----------------|-----10-|-------|
||---|--------|---|---------------|-----------------|--------|-------|
||---|--------|---|---------------|-----------------|--------|-------|
||---|--------|---|---------------|-----------------|--------|-------|

           /-3-\         /-3-\
||---------------|-----|-------------|---/3-|-3-3-|-(3)-------|
||-6-3-4---------|-----|-4-3---3-4-6-|-/----|-----|-----16-18-|
||-------5-3-----|---5-|-----5-------|------|-----|-----------|
||-----------5-3-|-----|-------------|------|-----|-----------|
||---------------|-6---|-------------|------|-----|-----------|
||---------------|-----|-------------|------|-----|-----------|

   /--3---\ /--3---\
||-15-------15----------------|----|---------------15-------------|
||----18-16----18-16-18-------|----|------18-16-18----18-16-18-17-|
||----------------------17-15-|-17-|-(17)-------------------------|
||----------------------------|----|------------------------------|
||----------------------------|----|------------------------------|
||----------------------------|----|------------------------------|


||---------|--------|-8-----------------------|---------|---------|
||------11-|-8----8-|---11-8------------------|-4-3-----|-4-3-----|
||-(17)----|---10---|--------11-10-8----10----|-----5-3-|-----5-3-|
||---------|--------|----------------10----10-|---------|---------|
||---------|--------|-------------------------|---------|---------|
||---------|--------|-------------------------|---------|---------|

                       /-3--\
||-----------|------------8-8-|-8-------------|-15----------15-15-|
||-----4-3---|-3-4-6-8-11-----|---------16-18-|----18-16-18-------|
||-(3)-----5-|----------------|---15-17-------|-------------------|
||-----------|----------------|---------------|-------------------|
||-----------|----------------|---------------|-------------------|
||-----------|----------------|---------------|-------------------|

  /-------6--------\
||-------------------------|------------------15-15-|-------|-------|
||-------------------------|------------15-18-------|-------|----16-|
||-15-------15-------------|---------15-------------|----15-|-17----|
||----17-15----17-15-17-17-|-(17)-17----------------|-18----|-------|
||-------------------------|------------------------|-------|-------|
||-------------------------|------------------------|-------|-------|


||----------|-15-15-|----15-|-------|
||----16----|-------|-18----|-16----|
||-17----15-|-------|-------|----17-|
||----------|-------|-------|-------|
||----------|-------|-------|-------|
||----------|-------|-------|-------|



Thanks to the original poster.


Peace,
Paul Z
            
Submit corrections

comments powered by Disqus
↑ Back to top | Led Zeppelin Tabs for Since I've Been Loving You. Lyrics for acoustic guitar and electric guitar. 1 Tablatures and chords are parodies/interpretations of the original songs. You may use it for private study, scholarship, research or language learning purposes only