>
 >
Poor Tom 2

Poor Tom 2 Bass Tabs

Led Zeppelin - Poor Tom 2 chords, tabs, tablatures, lyrics

Guitar lessons | Add/correct | Request | Top 50 tabs Artists:  A B C D E F G H I J K L M N O P Q R S T U V W X Y Z 0-9

Poor Tom 2 Bass Tabs – Led Zeppelin

CD, Sheet music, Poster

Do you like Poor Tom 2? Share with your friends now
Bass TabsBass Tabs v2ChordsTabsTabs v2Tabs v3Ukulele
-------------------------------------------------------------------------------
			     Poor Tom - Led Zeppelin
-------------------------------------------------------------------------------

Tuning: Standard

Wx36
G|--------|
D|--------|
A|---R----|
E|--------|
                                                              @ 0:28
G|--------|--------|--------|--------|--------|--------|--------|-14-----14---14-|
D|--------|--------|--------|--------|--------|--------|--------|----------------|
A|---R----|---R----|---R----|---R----|---R----|---R----|---R----|----------------|
E|--------|--------|--------|--------|--------|--------|--------|----------------|


G|-13-----13---13-|-12---12--1212---9---7---5---|-5------5----5--|-14-----14---14-|
D|----------------|-----------------------------|----------------|----------------|
A|----------------|-----------------------------|----------------|----------------|
E|----------------|-----------------------------|----------------|----------------|


G|-13---13---13-|-12----12--------------|--------------|--------|-----------5---5---5-7----7-7-|
D|--------------|-----------14--12--10--|-10---10---10-|-7------|-7----7--7--------------------|
A|--------------|-----------------------|--------------|--------|------------------------------|
E|--------------|-----------------------|--------------|--------|------------------------------|


G|-5------5----5--|-5------5----5--|----------------------------|-5-----5--5--5-----5--5--|
D|----------------|----------------|-5----5---5-4----5----5---5-|-------------------------|
A|----------------|----------------|----------------------------|-------------------------|
E|----------------|----------------|----------------------------|-------------------------|


G|-12---12--1211---12---12--12|-------------------------|----------------------------|
D|----------------------------|-10----10-10-10----10-10-|----------------------------|
A|----------------------------|-------------------------|-10---10--109----10---10--10|
E|----------------------------|-------------------------|----------------------------|


G|-------------------------|-12---12--1211---12---12----|------------------------|
D|-10----10-10-10----10-10-|----------------------------|-10---10----10----10----|
A|-------------------------|----------------------------|------------------------|
E|-------------------------|----------------------------|------------------------|


G|-12--11---11--------------|-11--12---12----------------------|-11--12---12------------------|
D|--------------10----10----|--------------10---10----10---10--|--------------10--------------|
A|--------------------------|----------------------------------|-------------------12---12----|
E|--------------------------|----------------------------------|------------------------------|


G|----------------|-------------------------|-----------------------|-12---12----11---12---12-|
D|----------------|-------------------------|-10----10----10----10--|-------------------------|
A|-10-----10------|-10---10----9----10---10-|-----------------------|-------------------------|
E|----------------|-------------------------|-----------------------|-------------------------|


G|----------------|-14-----14------|-13-----13------|-12---12----12---9---7---5---|
D|-10-----10------|----------------|----------------|-----------------------------|
A|----------------|----------------|----------------|-----------------------------|
E|----------------|----------------|----------------|-----------------------------|


G|-5------5-------|-14-----14------|-13-----13------|-12---12----12---9---7---5---|
D|----------------|----------------|----------------|-----------------------------|
A|----------------|----------------|----------------|-----------------------------|
E|----------------|----------------|----------------|-----------------------------|


G|-5------5-------|-2------|-2----2-----5----5-----7----7---|-5------5-------|-5------5-------|
D|----------------|--------|--------------------------------|----------------|----------------|
A|----------------|--------|--------------------------------|----------------|----------------|
E|----------------|--------|--------------------------------|----------------|----------------|


G|-2------|-2------2-------|-0----0----------0-----|-0------0-------|-5----5-----4----5-----|
D|--------|----------------|------------4----------|----------------|-----------------------|
A|--------|----------------|-----------------------|----------------|-----------------------|
E|--------|----------------|-----------------------|----------------|-----------------------|


G|-5------5-------|-0----0----------0-----|-0------0-------|-5----5-----4----5----5-----|
D|----------------|------------4----------|----------------|----------------------------|
A|----------------|-----------------------|----------------|----------------------------|
E|----------------|-----------------------|----------------|----------------------------|


G|-12--11---11-----------|-12--11---11---------------------|--------------|--------------------|
D|--------------10----10-|--------------10---10----10---10-|-10-----10----|--------------------|
A|-----------------------|---------------------------------|--------------|-10---10----9----10-|
E|-----------------------|---------------------------------|--------------|--------------------|


G|----------------|-12---12----11---12----|-12-----12------|-14-----14------|-13-----13------|
D|----------------|-----------------------|----------------|----------------|----------------|
A|-10-----10------|-----------------------|----------------|----------------|----------------|
E|----------------|-----------------------|----------------|----------------|----------------|


G|-12----12---------------------|-----------------------------|-14----14------14------|
D|-------------14--12---12--10--|-10---10---------------------|-----------------------|
A|------------------------------|---------------10---10-------|-----------------------|
E|------------------------------|-----------------------------|-----------------------|


G|-13----13--13---13---|-12---12---------------------|-------------|----2-----8----8---7---|
D|---------------------|-----------14--12---12--10---|-10-----10---|-----------------------|
A|---------------------|-----------------------------|-------------|-----------------------|
E|---------------------|-----------------------------|-------------|-----------------------|


G|-7---5----5-------------------|--------|-------------|--------|----------5----5----5---5---|
D|--------------7----5----------|--------|-------------|--------|----------------------------|
A|-----------------------7----7-|--------|-------------|-3------|-3----3---------------------|
E|------------------------------|-8------|-8------8----|--------|----------------------------|


G|-5------|-5------5-------|------14--15---15---15----|-12---12----10---12--12---12--|
D|--------|----------------|--------------------------|------------------------------|
A|--------|----------------|--------------------------|------------------------------|
E|--------|----------------|--------------------------|------------------------------|


G|-12---12--------------12---12--|------------12---12-------------|------15--17---14---14----|
D|----------10----10-------------|-10---10---------------10---10--|--------------------------|
A|-------------------------------|--------------------------------|--------------------------|
E|-------------------------------|--------------------------------|--------------------------|


G|-15---15----12---12----14---14--|------12---12-----------12---12--|-17-----17------|
D|--------------------------------|---------------10---10-----------|----------------|
A|--------------------------------|---------------------------------|----------------|
E|--------------------------------|---------------------------------|----------------|


G|----------------------------|------------------------------------|---------------------------|
D|------15---15----14---14----|-----------------------10--12---12--|-10----10------------------|
A|----------------------------|-15---15-----------12---------------|---------------------------|
E|----------------------------|----------15---15-------------------|-------------8----8---8----|


G|--------------------|-5--5-5--5-5--5-5--5-|-5--5-5--5-5--5-5--5---|
D|--------------------|---------------------|-----------------------|
A|--------------------|---------------------|-----------------------|
E|-8-8-8--8-8--8-8--8-|---------------------|-----------------------|


G|-5-----5-----2----2---0----0---|-------------2----2---0----0---|-2-----2-------2----2---|
D|-------------------------------|-------------------------------|------------------------|
A|-------------------------------|-3-----3-----------------------|------------------------|
E|-------------------------------|-------------------------------|------------------------|


G|-1-----1-----0----0---|-0-----0---------------------|-------------|--5-5-5-5--5--5-5--|
D|----------------------|-----------2----2---0----0---|-0------0----|-------------------|
A|----------------------|-----------------------------|-------------|-------------------|
E|----------------------|-----------------------------|-------------|-------------------|


G|-5---5--12--12-17--17--------|----------------------|-12---12--10---10--12---12--10---10--|
D|----------------------17-17--|-15-15--14-14--15-15--|-------------------------------------|
A|-----------------------------|----------------------|-------------------------------------|
E|-----------------------------|----------------------|-------------------------------------|


G|-9----9-----10----10--------|---------------------------------|-5---5---5---5----4----4---4---|
D|------------------------9---|-10---10--9----9--------7----7---|-------------------------------|
A|----------------------------|---------------------------------|-------------------------------|
E|----------------------------|---------------------------------|-------------------------------|


G|-5--5--------------------|-5---5---5---5----5----5---5---|-5---5-----------5---5----------|
D|--------5--5-5--5-5--5---|-------------------------------|--------------------------------|
A|-------------------------|-------------------------------|---------3---3----------3---3---|
E|-------------------------|-------------------------------|--------------------------------|


G|-5---5---5---5----5---5---5-|-5----5------------5----5----------|-5---5---5---5----5----5---5-|
D|----------------------------|-----------------------------------|-----------------------------|
A|----------------------------|----------3----3------------3----3-|-----------------------------|
E|----------------------------|-----------------------------------|-----------------------------|


G|-5----5------------5----5------------|-5---5---5---5----5----5---5---|-5------------------|
D|-------------------------------------|-------------------------------|--------------------|
A|----------3----3------------3----3---|-------------------------------|--------------------|
E|-------------------------------------|-------------------------------|--------------------|


G|--------|--------|
D|--------|--------|
A|--------|--------|
E|--------|--------|





Comments


Popular Led Zeppelin tabs & chords
Dazed And Confused 4 Bass Tabs
Stairway To Heaven 2 Bass Tabs
Ten Years Gone 2 Bass Tabs
Walter's Walk Bass Tabs
Stairway To Heaven Live Drum Tabs
Fool In The Rain 1 Tabs
Hots On For Nowhere Tabs
Led Zep Tabs
Stairway To Heaven 12 String Added Tabs
The Immigramt Song Tabs


Song lyrics



↑ Back to top | Tablatures and chords are parodies/interpretations of the original songs. You may use it for private study, scholarship, research or language learning purposes only
© 2014 AZChords.com Contact us | Privacy policy | DMCA | Add/correct tabs | Request tabs | Top 50 tabs