» » »

Led Zeppelin, Out On The Tiles Bass tabs (ver.2)

Artists:  A B C D E F G H I J K L M N O P Q R S T U V W X Y Z # 

Out On The Tiles Bass tabs (ver.2)

Led Zeppelin Tabs
 Rating:
4/5 (4 votes)
Out On The Tiles lessons Tabs too difficult? Try these video lessons and learn fast
1
                Artist ; Led Zeppelin
Album  ; Led Zeppelin III
Song   ; Out On The Tiles


It's not 100% correct but it's alot closer than the existing tab on the site.


   Intro
G ---------------------------------------------------------------------|
D ---------------------------------------------------------------------|
A ---------------------------------------------------------------------|
E --3--3--3--3--3--3--3--3--2--2--2--2--2--2--2--2--5P-3--5P-3--5P-3---|
                                                                              



  Verse                                               (x2)
G ----------------------------------------------------|
D -------------4--1-2-1-2-1-2-1-2---------------------|
A -----1---4-----------------------4-2-0-2-0-2-3-2-0--|
E --2-------------------------------------------------|
                                                                         

G ------------------------------------------------------------------------|
D ----------4-1-2-1-2-1-2-1-2---------------------------------------------|
A --1--4---------------------4-2-4-2-4-2-3-2-0----------------------------|
E 2---------------------------------------------4-5-4-5-4-5-4-5--2-0-2-0-2|

  Chorus


G ---------------------------------------------------------|
D -------------1--2-2--2-2--2-2--2-2-x---------------------|
A --------------------------------------0-----0--4--2------|
E --5-5--5-5------------------------------------------4----| 

                                                    
G ------------------------------------------------------------------------|
D -----------1--2-2--2-2--2-2--2-2-x--------------------------------------|
A ------------------------------------0-0--4--2---------------------------|
E -5-5--5-5-------------------------------------4--5p-3--5p-3--5p-3--5p-3-| 

   

  Outro
G ----------------------------------------------------------------------|
D ---------5------------5------------5-----------7---5------------------|
A -----7------------7------------7--------------------------------------|
E -0-----------0-0-----------0-----------0-0----------------------------|
            
Submit corrections

comments powered by Disqus
↑ Back to top | Led Zeppelin Bass for Out On The Tiles. Lyrics for acoustic guitar and electric guitar. 1 Tablatures and chords are parodies/interpretations of the original songs. You may use it for private study, scholarship, research or language learning purposes only