» » »

Living Loving Maid Tabs (ver.3)

Artists:  A B C D E F G H I J K L M N O P Q R S T U V W X Y Z # 

Living Loving Maid Tabs (ver.3)

Led Zeppelin
Rating:
0/5 (0 votes)

Hard to play? Try these video lessons and learn fast.
                d=down
u=up
16bh16=bend up then come back down


-------------------------------------------------------------|----------------
-------------------------------------------------------3-----|----------------
-------------------------------------0--2--0--2--2-2-2-2--2--|----------------
-------------------------------------0--2--0--2--2-2-2-2--2--|----------------
-0--3--0--3--4--5--------------3-----------------------------|----------------
-------------------3--3--3--5-----5--------------------------|----------------
                                                                              

-----------------------|-5---5-----5--5--5--5--|---------------------------|--
-7---7--x--7--7--7--7--|-5---5--x--5--5--5--5--|-7---7--x--7--7--7--7---9--|--
-7---7--x--7--7--7--7--|-6---6--x--6--6--6--6--|-7---7--x--7--7--7--7---9--|--
-7---7--x--7--7--7--7--|-7---7--x--7--7--7--7--|-7---7--x--7--7--7--7---9--|--
-5---5--x--5--5--5--5--|-7---7--x--7--7--7--7--|-5---5--x--5--5--5--5---7--|--
-----------------------|-5---5-----5--5--5--5--|---------------------------|--
 d   d  u  d  u  d  d    d   d  u  d  u  d  d    d   d  u  d  u  d  u         

------------------------------------5-5-5-5-5-5-5-5-5-5-5-5-5-5-5-5--|--------
-9-9-9-9-9-9-9-9-9-9-9-9-9-9-9-9----5-5-5-5-5-5-5-5-5-5-5-5-5-5-5-5--|--------
-9-9-9-9-9-9-9-9-9-9-9-9-9-9-9-9----6-6-6-6-6-6-6-6-6-6-6-6-6-6-6-6--|--------
-9-9-9-9-9-9-9-9-9-9-9-9-9-9-9-9----7-7-7-7-7-7-7-7-7-7-7-7-7-7-7-7--|--------
-7-7-7-7-7-7-7-7-7-7-7-7-7-7-7-7----7-7-7-7-7-7-7-7-7-7-7-7-7-7-7-7--|--------
------------------------------------5-5-5-5-5-5-5-5-5-5-5-5-5-5-5-5--|--------
                                                                              

-5-5-5-5-5-5-5-5-5-5-5-5-5-5-5-5----------------------------|-----------------
-5-5-5-5-5-5-5-5-5-5-5-5-5-5-5-5----------------------3-----|-----------------
-6-6-6-6-6-6-6-6-6-6-6-6-6-6-6-6----0--2--0--2--2-2-2-2--2--|-----------------
-7-7-7-7-7-7-7-7-7-7-7-7-7-7-7-7----0--2--0--2--2-2-2-2--2--|-----------------
-7-7-7-7-7-7-7-7-7-7-7-7-7-7-7-7----------------------------|-----------------
-5-5-5-5-5-5-5-5-5-5-5-5-5-5-5-5----------------------------|-----------------
                                                                              
Solo
-------------------------------------|-----------------------|----------------
-------------------------------------|-17b-17b-17b-17--15-14-|----------------
-------14----14-16b-16bh16-16bh16-14-|-----------------------|-------14-------
-14/16----16-------------------------|-----------------------|-14/16----16----
-------------------------------------|-----------------------|----------------
-------------------------------------|-----------------------|----------------
                                                                              

-------------------------------|--------------------------------------|-------
-------------------------------|--------------------------------------|-------
-14----14-16b-16bh16-16bh16-14-|-9-10-11-12-13-14-15-16-17-18-19--18b-|-------
----16-------------------------|--------------------------------------|-------
-------------------------------|--------------------------------------|-------
-------------------------------|--------------------------------------|-------
            
Hard to play? Try these video lessons and learn fast. | Correct




comments powered by Disqus
↑ Back to top | Tablatures and chords are parodies/interpretations of the original songs. You may use it for private study, scholarship, research or language learning purposes only