» » »

Lets Have A Party Tabs (ver.1)

Artists:  A B C D E F G H I J K L M N O P Q R S T U V W X Y Z # 

Lets Have A Party Tabs (ver.1)

Led Zeppelin
Rating:
0/5 (0 votes)

Hard to play? Try these video lessons and learn fast.
                This is written by Jerry Leiber Led Zeppelin performed it on How The West Was Won on the
second song in the medley of Whole Lotta Love
Guitarist:Jimmy Page (use distortion)
Tuning:EADGBE
____________________________________________________________________________
   E5
        Some people like to rock
E|-----------------------------------|
B|-----------------------------------|
G|-9-9---------------------------9-9-|
D|-9-9---------------------------9-9-|
A|-7-7---------------------------7-7-|
E|-----------------------------------|

  Some People like to Roll
E|-----------------------------|
B|-----------------------------|
G|-------------------------9-9-|
D|-------------------------9-9-|
A|-------------------------7-7-|
E|-----------------------------|

 But Movin and a groovin gonna satisfy the soul
E|----------------------------------------------|
B|----------------------------------------------|
G|----------------------------------------------|
D|----------------------------------------------|
A|----------------------------------------------|
E|----------------------------------------------|

                    D5
  Lets Have a party
E|----------------------------------------------|
B|----------------------------------------------|
G|------------------7--7-9--9-7--7-9-7----------|
D|------------------7--7-9--9-7--7-9-7----------|
A|------------------5--5-7--7-5--5-7-5----------|
E|----------------------------------------------|

  OOOOOOOOOOOOOOOOO
E|--------------------|
B|--------------------|
G|-7--7-9--9-7--7-9-7-|
D|-7--7-9--9-7--7-9-7-|
A|-5--5-7--7-5--5-7-5-|
E|--------------------|

   A5   C#5
  Lets Have a Party
E|--------------------|--------------------|
B|--------------------|--------------------|
G|--------------------|--------------------|
D|-7--7-9--9-7--7-9-7-|-7--7-9--9-7--7-9-7-|
A|-7--7-9--9-7--7-9-7-|-7--7-9--9-7--7-9-7-|
E|-5--5-7--7-5--5-7-5-|-5--5-7--7-5--5-7-5-|

Sittin to the starlets    have some wallets
E|---------------------|---------------------|
B|---------------------|---------------------|
G|-9--9-9--9-9--9-9--9-|-7--7-7--7-7--7-7--7-|
D|-9--9-9--9-9--9-9--9-|-7--7-7--7-7--7-7--7-|
A|-7--7-7--7-7--7-7--7-|-5--5-5--5-5--5-5--5-|
E|---------------------|---------------------|

Lets have a party tonite
E|-----------------------|
B|-----------------------|
G|-9--9-9--9-9--9-9--9---|
D|-9--9-9--9-9--9-9--9-7-|
A|-7--7-7--7-7--7-7--7-7-|
E|---------------------5-|

   Honky Tonky Joe       Is knockin at the door
E|---------------------|----------------------------|
B|---------------------|----------------------------|
G|-----------------9-9-|------------------------9-9-|
D|-----------------9-9-|------------------------9-9-|
A|-----------------7-7-|------------------------7-7-|
E|---------------------|----------------------------|

  Bring him and Ill fill him up and send him to the floor
E|--------------------------------------------------------|
B|--------------------------------------------------------|
G|--------------------------------------------------------|
D|--------------------------------------------------------|
A|--------------------------------------------------------|
E|--------------------------------------------------------|

  Lets Have a party
E|----------------------------------------------|
B|----------------------------------------------|
G|------------------7--7-9--9-7--7-9-7----------|
D|------------------7--7-9--9-7--7-9-7----------|
A|------------------5--5-7--7-5--5-7-5----------|
E|----------------------------------------------|

  OOOOOOOOOOOOOOOOO
E|--------------------|
B|--------------------|
G|-7--7-9--9-7--7-9-7-|
D|-7--7-9--9-7--7-9-7-|
A|-5--5-7--7-5--5-7-5-|
E|--------------------|

  Lets Have a Party
E|--------------------|--------------------|
B|--------------------|--------------------|
G|--------------------|--------------------|
D|-7--7-9--9-7--7-9-7-|-7--7-9--9-7--7-9-7-|
A|-7--7-9--9-7--7-9-7-|-7--7-9--9-7--7-9-7-|
E|-5--5-7--7-5--5-7-5-|-5--5-7--7-5--5-7-5-|

Sittin to the starlets    have some wallets
E|---------------------|---------------------|
B|---------------------|---------------------|
G|-9--9-9--9-9--9-9--9-|-7--7-7--7-7--7-7--7-|
D|-9--9-9--9-9--9-9--9-|-7--7-7--7-7--7-7--7-|
A|-7--7-7--7-7--7-7--7-|-5--5-5--5-5--5-5--5-|
E|---------------------|---------------------|

Lets have a party tonite
E|-----------------------|
B|-----------------------|
G|-9--9-9--9-9--9-9--9---|
D|-9--9-9--9-9--9-9--9-7-|
A|-7--7-7--7-7--7-7--7-7-|
E|---------------------5-|

Solo:
I dont have one yet but Its fairly simple.

   I never kissed a bear
E|---------------------------|
B|---------------------------|
G|-----------------------9-9-|
D|-----------------------9-9-|
A|-----------------------7-7-|
E|---------------------------|

   I never kissed a goul
E|---------------------------|
B|---------------------------|
G|-----------------------9-9-|
D|-----------------------9-9-|
A|-----------------------7-7-|
E|---------------------------|

   But I can shake a chicken in the middle of a lets have a party
E|----------------------------------------------------------------|
B|----------------------------------------------------------------|
G|----------------------------------------------------------------|
D|----------------------------------------------------------------|
A|----------------------------------------------------------------|
E|----------------------------------------------------------------|

  Lets Have a party
E|----------------------------------------------|
B|----------------------------------------------|
G|------------------7--7-9--9-7--7-9-7----------|
D|------------------7--7-9--9-7--7-9-7----------|
A|------------------5--5-7--7-5--5-7-5----------|
E|----------------------------------------------|

  OOOOOOOOOOOOOOOOO
E|--------------------|
B|--------------------|
G|-7--7-9--9-7--7-9-7-|
D|-7--7-9--9-7--7-9-7-|
A|-5--5-7--7-5--5-7-5-|
E|--------------------|

  Lets Have a Party
E|--------------------|--------------------|
B|--------------------|--------------------|
G|--------------------|--------------------|
D|-7--7-9--9-7--7-9-7-|-7--7-9--9-7--7-9-7-|
A|-7--7-9--9-7--7-9-7-|-7--7-9--9-7--7-9-7-|
E|-5--5-7--7-5--5-7-5-|-5--5-7--7-5--5-7-5-|

Sittin to the starlets    have some wallets
E|---------------------|---------------------|
B|---------------------|---------------------|
G|-9--9-9--9-9--9-9--9-|-7--7-7--7-7--7-7--7-|
D|-9--9-9--9-9--9-9--9-|-7--7-7--7-7--7-7--7-|
A|-7--7-7--7-7--7-7--7-|-5--5-5--5-5--5-5--5-|
E|---------------------|---------------------|

Lets have a party tonite
E|-----------------------|
B|-----------------------|
G|-9--9-9--9-9--9-9--9---|
D|-9--9-9--9-9--9-9--9-7-|
A|-7--7-7--7-7--7-7--7-7-|
E|---------------------5-|

  Were gonna have          a party
E|---------------------|---------------------|
B|---------------------|---------------------|
G|-9--9-9--9-9--9-9--9-|-7--7-7--7-7--7-7--7-|
D|-9--9-9--9-9--9-9--9-|-7--7-7--7-7--7-7--7-|
A|-7--7-7--7-7--7-7--7-|-5--5-5--5-5--5-5--5-|
E|---------------------|---------------------|

   toniiiite
E|-----------------------|
B|-----------------------|
G|-9--9-9--9-9--9-9--9---|
D|-9--9-9--9-9--9-9--9-7-|
A|-7--7-7--7-7--7-7--7-7-|
E|---------------------5-|

Solo
end on an A5
            
Hard to play? Try these video lessons and learn fast. | Correct




comments powered by Disqus
↑ Back to top | Tablatures and chords are parodies/interpretations of the original songs. You may use it for private study, scholarship, research or language learning purposes only