» » »

Led Zeppelin, In The Light Bass tabs (ver.1)

Artists:  A B C D E F G H I J K L M N O P Q R S T U V W X Y Z # 

In The Light Bass tabs (ver.1)

Led Zeppelin Tabs
 Rating:
4/5 (4 votes)
In The Light lessons Tabs too difficult? Try these video lessons and learn fast
1
                In the Light-Led zep
Bassist- John Paul Jones

Riff bit
G|----------------|----------------|----------------|----------------|
D|7-6-----5-------|----------------|7-6-----5-------|----------------|
A|----------7-----|6-5-----3-------|----------7-----|6-5-----3-------|
E|----------------|----------5-----|----------------|----------5-----| 2X

Verse
G|----------------|--------7-------|----------------|--------7-------|
D|--------7-------|5-7-4-3-------5-|--------7-------|5-7-4-3-------5-|
A|0---0-----------|----------8-7---|0---0-----------|----------8-7---|
E|----------------|----------------|----------------|----------------| 4X

G|----------------|
D|7-6-----5-------| (fill)
A|----------7-----|
E|----------------|

Interlude
G|----------------|----------------|----------------|----------------|
D|----7-----5-----|3-----------5-7-|----------------|----------------|
A|----------------|------5-7-------|5---5-------3-4-|5---5-----------|
E|5---------------|----------------|----------5-----|----------0-2-3-|

G|----------------|----------------|----------------|----------7-7-9-|
D|----7-----5-----|3---------------|----------------|--5-3---7-------|
A|----------------|------5-7-----8-|5-3-5-------5---|5-----5---------|
E|5---------------|----------------|----------------|----------------|

G|----------------|----------------|----------7-----|9---9107--------|
D|7---7-----5-----|3-----------7---|----------------|-----------4-5--|
A|----------------|------5-7-8---8-|5---5-------5---|--5------5------|
E|----------------|----------------|----------------|----------------|

G|----------------|----------------|----------------|----------------|
D|7---7-----5-----|3-------2-----3-|----------------|----------------|
A|----------------|----------------|5---5-----------|----------------|
E|----------------|----------------|----------------|----------------|

  When bass comes back in at approx. 05:51
G|----------------|
D|7-6-----5-------|
A|----------7-----|
E|----------------|

G|----------------|--------7-------|----------------|--------7-------|
D|--------7-------|5-7-4-3-------5-|--------7-------|5-7-4-3-------5-|
A|0---0-----------|----------8-7---|0---0-----------|----------8-7---|
E|----------------|----------------|----------------|----------------| 3X

G|----------------|----------------|----------------|----------------|
D|7-6-----5-------|----------------|7-6-----5-------|----------------|
A|----------7-----|6-5-----3-------|----------7-----|6-5-----3-------|
E|----------------|----------5-----|----------------|----------5-----| 2X

G|----------------|----------------|----------------|----------------|
D|----7-----5-----|3-------------7-|----------------|--7-7-9-7-------| 16X
A|----------------|------5-7---7---|5---5---------8-|----------8-7---| then
E|5---------------|----------------|----------------|--------------7-| fade
            
Submit corrections

comments powered by Disqus
↑ Back to top | Led Zeppelin Bass for In The Light. Lyrics for acoustic guitar and electric guitar. 1 Tablatures and chords are parodies/interpretations of the original songs. You may use it for private study, scholarship, research or language learning purposes only