» » »

Heartbreaker Tabs (ver.3)

Artists:  A B C D E F G H I J K L M N O P Q R S T U V W X Y Z # 

Heartbreaker Tabs (ver.3)

Led Zeppelin
Rating:
0/5 (0 votes)

Hard to play? Try these video lessons and learn fast.
                E|----|----------------|----------------|
B|----|----------------|----------------|
G|----|----------------|----------------|
D|----|--------0--12---|--------0--12---|
A|----|0---3-----------|00003-----------|
E|--3b|-------------3--|-------------3--| 3X

E|----------------|-----------------|----------------|----------------|
B|----------------|-----------------|----------------|----------------|
G|----------------|-----------------|----------------|----------------|
D|----0---2--34---|----0---2--34----|--------0--12---|--------0--12---|
A|2---------------|2222-------------|0---3-----------|00003-----------|
E|-------------5--|-------------5---|-------------3--|-------------3--|

E| |----------------|-----------------|----------------|----------------|
B| |-------------7--|-----------------|-------------7--|----------------|
G|o|-------------7--|6----------------|-------------7--|6---------------|
D|o|7------------7--|7----------------|-------------7--|7---------------|
A| |7------------5--|7----------------|-------------5--|7---------------|
E| |5---------------|5----------------|----------------|5---------------|

E|----------------|-----------------|----------------|----------------|
B|-------------7--|-----------------|-------------7--|----------------|
G|-------------7--|6----------------|-------------7--|----------------|
D|-------------7--|7----------------|-------------7--|7---------------|
A|-------------5--|7----------------|-------------5--|7---------------|
E|----------------|5----------------|----------------|5---------------|

E|------------|--------|
B|---7-----7--|--------|
G|---7-----7--|--------|
D|7--7--7--7--|7-------|
A|7--5--7--5--|7-------|
E|5-----5-----|5-------|

E|----------------|-----------------|----------------|----------------|
B|----------------|-----------------|----------------|----------------|
G|----------------|-----------------|----------------|----------------|
D|--------0--12---|--------0--12----|--------0--12---|--------0--12---|
A|0---3-----------|00003------------|0---3-----------|00003-----------|
E|-------------3--|-------------3---|-------------3--|-------------3--|
                                                     _________________
                                                                      |
E|----------------|----------------|----------------|---------------- |
B|----------------|----------------|----------------|---------------- |
G|----------------|----------------|----------------|----------------o|
D|----0---2--34---|----0---2--34---|--------0--12---|--------0--12---o|
A|2---------------|2222------------|0---3-----------|00003----------- |
E|-------------5--|-------------5--|-------------3--|-------------3-- |

E|-----------------|-----------------|-----------------|-----------------|
B|-----------------|-----------------|-----------------|-----------------|
G|-----------------|-----------------|-----------------|-----------------|
D|-----------------|-----------------|-----------------|-----------------|
A|----6---8--910---|----6---8--910---|----6---8--910---|----6---8--910---|
E|8-------------6--|8888----------6--|8-------------6--|8888----------6--|

E|----------------|-----------------|----------------|----------------|
B|----------------|-----------------|----------------|----------------|
G|----------------|-----------------|----------------|----------------|
D|----------------|-----------------|----5---7--89---|----5---7--89---|
A|----8---10-1112-|--------8-101112-|7------------5--|7777---------5--|
E|10-------------8|10101010--------8|----------------|----------------|

E|----------------|----------------|----------------|----------------|
B|----------------|----------------|---9----99999999|9999999999999999|
G|--7-7-7-7-7-799-|--7-7-7-7-7-799-|---9----99999999|9999999999999999|
D|-9-9---9---9----|-9-9---9---9----|---9----99999999|9999999999999999|
A|----------------|----------------|---7----77777777|7777777777777777|
E|----------------|----------------|0000000000000000|0000000000000000|

                   Guitar Solo
E|----------------|------------------------------------------------
B|999999999-------|------------------------------------------------
G|999999999-------|2-520---2-520-------2-5205205205205205205-20-5-2
D|999999999-------|-----20-------20--------------------------------
A|777777777-------|-------3--------3-------------------------------
E|000000000-------|------------------------------------------------

E|-----------------------------------------------------------------
B|-----------------------------------------------------------------
G|05-205 205 205 205-------5-7-7-------5-7-7-5---------5-7---------
D|-----------------------7-----------7---------7-----7-------------
A|-----------------------------------------------------------------
E|-----------------------------------------------------------------

E|---------------------------------------------------857--3857--585
B|----------------------55-855-55-85-585555585---5855---57----57---
G|7-5---7-5---7-5--5-5-7------7-----7---------77-------------------
D|----7-----7-----7------------------------------------------------
A|-----------------------------------------------------------------
E|-----------------------------------------------------------------

E|--85755--5-8111181088--------------------------------------------
B|75-----10------------10------------------------------------------
G|-----------------------89889677454------454----------------------
D|----------------------------------65--45---7---454-454-4---------
A|------------------------------------07------077---7---70043534-0-
E|--------------------------------------------------------------3--

E|------------5------------------------5--------------------5-5----
B|----------55-85---------------------5-8585--------------5-----8--
G|-----2466------7-87575------5775-577------788-575-55566----------
D|---24-----------------75-567----7----------------7---------------
A|2-4---------------------7----------------------------------------
E|-----------------------------------------------------------------

E|-------------------------------------------|----------------|
B|-----------9-----7-----5-----4-----3---3---|2--3--5--7--5-3-|
G|-------------------------------------------|0--0--0--0--0-0-|
D|-----0---9-----7-----6-----5-----4-----4---|2--4--5--7--5-4-|
A|-------------------------------------------|0--0--------0-0-|
E|-------------------------------------------|----------------| 

E|3---------------|5---------------|3---------------|----------------|
B|1---------------|3---------------|1---------------|----------------|
G|0---------------|0---------------|0---------------|----------------|
D|2---------------|4---------------|2---------------|4-----------4---|
A|0---------------|0---------------|0---------------|0-----------0---|
E|----------------|----------------|----------------|---------------4|
            
Hard to play? Try these video lessons and learn fast. | Correct




comments powered by Disqus
↑ Back to top | Tablatures and chords are parodies/interpretations of the original songs. You may use it for private study, scholarship, research or language learning purposes only