>
 >
Down By The Seaside 3

Down By The Seaside 3 Guitar Tabs

Led Zeppelin - Down By The Seaside 3 chords, tabs, tablatures, lyrics

Guitar lessons | Add/correct | Request | Top 50 tabs Artists:  A B C D E F G H I J K L M N O P Q R S T U V W X Y Z 0-9

Down By The Seaside 3 Guitar Tabs – Led Zeppelin

CD, Sheet music, Poster

Do you like Down By The Seaside 3? Share with your friends now
Drum TabsTabsTabs v2Tabs v3Tabs v4
DOWN BY THE SEASIDE


 Intro
 Slowly and Relaxing
                F                      G
  
  Gtr III
|-------------|-^5------(5)---4s5--3-|-(3)------3--5-5s7--5-|
|-------------|-^5------(5)----------|----------------------|
|-------------|-^5------(5)---4s5--4-|-(4)------4--5-5s7--5-|
|-------------|----------------------|----------------------|
|-------------|----------------------|----------------------|
|-------------|----------------------|----------------------|


  F                     F   C                F
 
|-(5)------4s5--3-1---|-1h3p1-0---(0)------|-^5------(5)---4s5--3--|
|---------------------|--------------------|-^5------(5)-----------|
|-(5)------4s5--4-2---|-2h3p2-0---(0)------|-^5------(5)---4s5--4--|
|---------------------|--------------------|-----------------------|
|---------------------|--------------------|-----------------------|
|---------------------|--------------------|-----------------------|


                                               First Verse
  G                      F                      F   C

|-(3)------3--5-5s7--5-|-(5)------4s5--3-1---||-1h3p1-0---(0)-------|
|----------------------|---------------------||---------------------|
|-(4)------4--5-5s7--5-|-(5)------4s5--4-2---||-2h3p2-0---(0)-------|
|----------------------|---------------------||---------------------|
|----------------------|---------------------||---------------------|
|----------------------|---------------------||---------------------|


  F             C                   F
 

|-------------|-------------------|------------------|
|-------------|-------------------|------------------|
|-------------|-------------------|------------------|
|-------------|----------5------5-|------------------|
|-------------|------5s7-----7----|--------3--3----3-|
|-------------|-------------------|------5------5----|


  C                                    F
  
|------------------------------------|-------------------|
|------------------------------------|-------------------|
|------------------------------------|-------------------|
|------------------------------------|-------------------|
|-5b7==(5)--(5)r---5b7r(5)p3-(3)-3---|---------3--3-0--3-|
|----------------------------------5-|-1-----5-----------|


  C
  
|-------------------------------------|
|-------------------------------------|
|-------------------------------------|
|-------------------------------------|
|-5b7==(5)--(5)r---5b7r(5)p3-(3)-3----|
|----------------------------------5--|


  C   F
|-----13-------(13)---13------13-------|
|-----13-------(13)---13------13-------|
|-----12b14====(12)r--12b14---12b14====|
|--------------------------------------|
|--------------------------------------|
|--------------------------------------|
|
| Gtr IV
|-0------------------------------------|
|-1------------------------------------|
|-0----2--------(2)----0----0h=2-------|
|-2----3--------(3)----3-------3-------|
|-3----3--------(3)----3-------3-------|
|------1--------(1)----1-------1-------|


|-(13)---13------13-------(13)---13------13-----------|
|-(13)---13------13-------(13)---13------13-----------|
|-(12)r--12b14---12b14====(12)r--12b14---12b14--12b14-|
|-----------------------------------------------------|
|-----------------------------------------------------|
|-----------------------------------------------------|
|
|------------------------------------------------1----|
|------------------------------------------------1----|
|--(2)----0----0h=2--------(2)----0----0h=2------2----|
|--(3)----3-------3--------(3)----3-------3------3----|
|--(3)----3-------3--------(3)----3-------3------3----|
|--(1)----1-------1--------(1)----1-------1------1----|


 Chorus
  C
  Gtr IV
 
|-------------12----12----12----12----12-|
|----------------------------------------|
|-12b14r(12)-----12----12----12----12----|
|----------------------------------------|
|----------------------------------------|
|----------------------------------------|


                                        F
  
|----12----12----12----11-------10----|-------17----17----17----17-------16----|
|-------------------------------------|----------------------------------------|
|-12----12----12----11----11-10----10-|-10s17----17----17----17----17-16----16-|
|-------------------------------------|----------------------------------------|
|-------------------------------------|----------------------------------------|
|-------------------------------------|----------------------------------------|


  F
  
|----17-------16-------17----17--------|
|--------------------------------------|
|-17----17-16----16-17----17----17s12--|
|--------------------------------------|
|--------------------------------------|
|--------------------------------------|


     C
    
|-------12----12----12----12----12----12-|----12----12----12----11-------10-----|
|----------------------------------------|--------------------------------------|
|-10s12----12----12----12----12----12----|-12----12----12----11----11-10----10--|
|----------------------------------------|--------------------------------------|
|----------------------------------------|--------------------------------------|
|----------------------------------------|--------------------------------------|


     F
 
|-------17----17----17----17-------16----|
|----------------------------------------|
|-10s17----17----17----17----17-16----16-|
|----------------------------------------|
|----------------------------------------|
|----------------------------------------|


                                                                    C
 
|----17----17----17----17----17---|-13------13------13-------(13)------|
|---------------------------------|-13------13------13-------(13)------|
|-17----17----17----17----17------|-12b14---12b14---12b14====(12)r--12-|
|---------------------------------|---------------------------------10-|
|---------------------------------|------------------------------------|
|---------------------------------|------------------------------------|


  C               F                         C
 
|---------------|-13------13------13---------|-8--------------|-(8)----||
|---------------|-13------13------13---------|-8--------------|-(8)----||
|-12------------|-12b14---12b14---12b14------|-7b9------------|-(7)----||
|-10------------|----------------------------|----------------|--------||
|---------------|----------------------------|----------------|--------||
|---------------|----------------------------|----------------|--------||


 Second Verse
  C                       F                             C
 
|-----------------------|-----------------------------|-----------------------|
|-----------------------|-----------------------------|-----------------------|
|-----------------------|-7b9r(7)p5-(5)---(5)-----5---|------------------5----|
|--------------5----5---|---------------------5-7-----|------5---5-(5)------7-|
|-3---(3)--5s7----7-----|-----------------------------|-5h=7---7--------------|
|-----------------------|-----------------------------|-----------------------|


  F                     C                          F
 
|---------------------|--------------------------|-----------------------------|
|---------------------|--------------------------|-----------------------------|
|-7b9--7-5------5-----|---------------------5----|-7b9-7-5-(5)---(5)-----5-----|
|-----------------7-5-|-----5-(5)---(5)-5-7----7-|-------------------5h7----7--|
|---------------------|-5h7----------------------|-----------------------------|
|---------------------|--------------------------|-----------------------------|


  C                              F
|--------------------------|-----13-------(13)---13------13-------|
|--------------------------|-----13-------(13)---13------13-------|
|---------------------5----|-----12b14====(12)r--12b14---12b14====|
|-----5-(5)----(5)--7------|-7------------------------------------|
|-5h7----------------------|--------------------------------------|
|--------------------------|--------------------------------------|
|
| Gtr IV
|-0------0---0--0---0-0--0-|-0------------------------------------|
|-1------1---1--1---1-1--1-|-1------------------------------------|
|-0------0---0--0---0-0--0-|-0----2--------(2)----0----0h=2-------|
|-2------2---2--2---2-2--2-|-2----3--------(3)----3-------3-------|
|-3------3---3--3---3-3--3-|-3----3--------(3)----3-------3-------|
|--------------------------|------1--------(1)----1-------1-------|


|-(13)---13------13-------(13)---13------13-----------|
|-(13)---13------13-------(13)---13------13-----------|
|-(12)r--12b14---12b14====(12)r--12b14---12b14--12b14-|
|-----------------------------------------------------|
|-----------------------------------------------------|
|-----------------------------------------------------|
|
|------------------------------------------------1----|
|------------------------------------------------1----|
|--(2)----0----0h=2--------(2)----0----0h=2------2----|
|--(3)----3-------3--------(3)----3-------3------3----|
|--(3)----3-------3--------(3)----3-------3------3----|
|--(1)----1-------1--------(1)----1-------1------1----|


 Chorus
  C
  Gtr IV

|-------------12----12----12----12----12-|
|----------------------------------------|
|-12b14r(12)-----12----12----12----12----|
|----------------------------------------|
|----------------------------------------|
|----------------------------------------|


                                           F
 
|----12----12----12----11-------10----|-------17----17----17----17-------16----|
|-------------------------------------|----------------------------------------|
|-12----12----12----11----11-10----10-|-10s17----17----17----17----17-16----16-|
|-------------------------------------|----------------------------------------|
|-------------------------------------|----------------------------------------|
|-------------------------------------|----------------------------------------|


  F
  
|----17-------16-------17----17----17-|
|-------------------------------------|
|-17----17-16----16-17----17----17----|
|-------------------------------------|
|-------------------------------------|
|-------------------------------------|


     C
  
|-------12----12----12----12----12----12-|----12----12----12----11-------10----|
|----------------------------------------|-------------------------------------|
|-10s12----12----12----12----12----12----|-12----12----12----11----11-10----10-|
|----------------------------------------|-------------------------------------|
|----------------------------------------|-------------------------------------|
|----------------------------------------|-------------------------------------|


     F
   
|-------17----17----17----17-------16----|
|----------------------------------------|
|-10s17----17----17----17----17-16----16-|
|----------------------------------------|
|----------------------------------------|
|----------------------------------------|


                                                                    C
  
|----17-------16-------17----17---|-13------13------13-------(13)------|
|---------------------------------|-13------13------13-------(13)------|
|-17----17-16----16-17----17------|-12b14---12b14---12b14====(12)r--12-|
|---------------------------------|------------------------------------|
|---------------------------------|------------------------------------|
|---------------------------------|------------------------------------|


                                                 Faster Now!
  C                   F                             Am
  
|-------------------|-13------13------13---------||-^0----|
|-------------------|-13------13------13---------||-^1----|
|-(12)--------------|-12b14---12b14---12b14------||-^2----|
|--12b14------------|----------------------------||-^2----|
|-------------------|----------------------------||-^0----|
|-------------------|----------------------------||-------|


                N.C.(A)
                Gtrs III, V
|-(0)---------|--------------------------|--------------------|
|-(1)---------|-----5--3---3-3-5-x-x-x---|-x-x-5--3-----------|
|-(2)---------|-----5--4---4-4-5-x-x-x---|-x-x-5--4-4-4-5---2-|
|-(2)---------|-----5--4---4-----x-x-x---|-x-x-5--4-5-5-7-4-2-|
|-(0)---------|----------0---0-0---------|-0------------------|
|-------------|------------------x-x-x-5-|--------------------|
|
| Gtr IV
|----------0--|-(0)----------------------|-0------------------|
|----------0--|-(0)----------------------|-0------------------|
|----------2--|-(2)----------------------|-2------------------|
|----------2--|-(2)----------------------|-2--------------2-2-|
|----------0--|-(0)----------------------|-0--------------0-0-|
|-------------|--------------------------|--------------------|


 Guitar Solo
  Gtr I
                      ~~~~~~~~~~~~~~~
|---------------15---15-------|-(15)---------------------------------------------|
|---------------15---15b17====|=(15)----------(15)r-15b17r(15)-13----13-15-13----|
|-----------------------------|-----------------------------------14----------14-|
|-----------------------------|--------------------------------------------------|
|-----------------------------|--------------------------------------------------|
|-----------------------------|--------------------------------------------------|
|
| Gtr II
|-----------------------------|--------------------------------------------------|
|-----------------------------|--------------------------------------------------|
|-----------------------------|--------------------------------------------------|
|-----------------------------|--------------------------------------------------|
|-----------------------------|--------------------------------------------------|
|-----------------------------|--------------------------------------------------|
|
| Gtrs III, V
|-----------------------------|--------------------------------------------------|
|--5--3---3-3-5--x-x--x-----x-|---x--x-5--3--------------------------------------|
|--5--4---4-4-5--x-x--x-----x-|---x--x-5--4-4---4-----------5---------x--x--2----|
|--5--4---4-4-5--x-x--x-----x-|---x--x-5--4-5---5-----------7---------x--4--2----|
|-------0---0-0---------------|--------------------------------------------------|
|-----------------------------|--------------------------------------------------|


|--------------------------------------------|
|-13-15-13-(13)---------------------10-------|
|-----------------------------14-12----------|
|-----------------------12b14----------12p===|
|--------------------------------------------|
|--------------------------------------------|
|
|  ~~
|--------------------------------------------|
|--------------------------------------------|
|-14-----------------------------------------|
|--------------------------------------------|
|--------------------------------------------|
|--------------------------------------------|
|
|--------------------------------------------|
|--------5------3---3-3--5-----x--x--x--x----|
|--------5------4---4-4--5-----x--x--x--x----|
|--------5------4---4-4--5-----x--x--x--x----|
|-----------------0---0--0-------------------|
|--------------------------------------------|


|-------------------------------------------|
|-------------------------------------------|
|-------------------------------------------|
|--10----12p10--12b14---10-12----12b14---10-|
|-------------------------------------------|
|-------------------------------------------|
|
|   ~~~~~~~~~~~~~~~~~~~~~~~~~~~~~~~~~~~~~~~~~
|-------------------------------------------|
|-------------------------------------------|
|-(14)--------------------------------------|
|-------------------------------------------|
|-------------------------------------------|
|-------------------------------------------|
|
|-------------------------------------------|
|---x--x--5------3--------------------------|
|---x--x--5------4----4--4----5---x----x--2-|
|---x--x--5------4----5--5----7---x----4--2-|
|-------------------------------------------|
|-------------------------------------------|


|-----------------------------------------------|
|-----------------------------------------------|
|------------14-12-14---------------------------|
|-(10)-12b14-------14-12p10----12p10---12p10----|
|---------------------------12-------x-------12-|
|-----------------------------------------------|
|
|~~~~~~
|-----------------------------------------------|
|-----------------------------------------------|
|-(14)------------------------------------------|
|-----------------------------------------------|
|-----------------------------------------------|
|-----------------------------------------------|
|
|-----------------------------------------------|
|-------5--------3-----3--3-----5----x--x--x--x-|
|-------5--------4-----4--4-----5----x--x--x--x-|
|-------5--------4-----4--4-----5----x--x--x--x-|
|-------------------0-----0-----0---------------|
|-----------------------------------------------|


|--------------------------------------------|
|--------------------------------------------|
|--------------------------------------------|
|--10b11------------------10---------------5-|
|----------12-10----10-10-10-----------5s7---|
|----------------12----12-10-8-5-8-5-8-------|
|
|   ~~~~~~~~~~~~~~~~~~~~~~~~~~~~~~~~~~~~~~~~~~
|--------------------------------------------|
|--------------------------------------------|
|-(14)---------------------------------------|
|--------------------------------------------|
|--------------------------------------------|
|--------------------------------------------|
|
|--------------------------------------------|
|---x----x--5--------3-----------------------|
|---x----x--5--------4-----4-4---5-------2---|
|---x----x--5--------4-----5-5---7---4---2---|
|---0----------------------------------------|
|--------------------------------------------|


|--------------------------------5-8-5------|
|----------------------------------8-5------|
|---5--------------5---5-7b9-(7)-------7p5--|
|------7p5-7-5-6-7--------------------------|
|-------------------------------------------|
|-------------------------------------------|
|
|~~~~~~
|-------------------------------------------|
|-------------------------------------------|
|-(14)--------------------------------------|
|-------------------------------------------|
|-------------------------------------------|
|-------------------------------------------|
|
|-------------------------------------------|
|----------5-----3---3-3------5----x-x-x-x--|
|----------5-----4---4-4------5----x-x-x-x--|
|----------5-----4---4-4------5----x-x-x-x--|
|------------------0---0------0-------------|
|-------------------------------------------|


|----------------------8---------------|
|--------------------8---10p8---8-9-10-|
|------7p5---5---7h9----------9--------|
|---7------7---------------------------|
|--------------------------------------|
|--------------------------------------|
|
|   ~~~~~~~~~~~~~~~~~~~~~~~~~~~~~~~~~~~~
|--------------------------------------|
|--------------------------------------|
|-(14)---------------------------------|
|--------------------------------------|
|--------------------------------------|
|--------------------------------------|
|
|--------------------------------------|
|---x--x-5-----3-----------------------|
|---x--x-5-----4---4-4----5-------2----|
|---x--x-5-----4---5-5----7---4---2----|
|---0----------------------------------|
|--------------------------------------|


|---8-----8-10b12-(10)---10p8----10p8----8s==5------|
|------10---------------------10------10-------8-5--|
|---------------------------------------------------|
|---------------------------------------------------|
|---------------------------------------------------|
|---------------------------------------------------|
|
|~~~~~~
|---------------------------------------------------|
|---------------------------------------------------|
|-(14)----------------------------------------------|
|---------------------------------------------------|
|---------------------------------------------------|
|---------------------------------------------------|
|
|---------------------------------------------------|
|---------5------------3----3--3----5----x-x---x-x--|
|---------5------------4----4--4----5----x-x---x-x--|
|---------5------------4----4--4----5----x-x---x-x--|
|-------------------------0----0----0---------------|
|---------------------------------------------------|


|------5-------------------------8--(8)---|
|------5----------------------------------|
|---7----5---7---5---5-7b9==(7)-(7)-(7)---|
|----------7---7---7----------------------|
|-----------------------------------------|
|-----------------------------------------|
|
|   ~~~~~~~~~~~~~~~~~~~~~~~~~~~~~~~~~~~~~~~
|-----------------------------------------|
|-----------------------------------------|
|-(14)------------------------------------|
|-----------------------------------------|
|-----------------------------------------|
|-----------------------------------------|
|
|-----------------------------------------|
|---x--x-5-----3--------------------------|
|---x--x-5-----4---4-4-------5----------2-|
|---x--x-5-----4---5-5-------7-------4--2-|
|---0-------------------------------------|
|-----------------------------------------|


|----(8)--------------------------------8-------|
|-----------------------------------------------|
|-7r==7b9r7p5---5h7p5---5-7b9-(7)-7b9==(7)------|
|-------------7-------7-------------------------|
|-----------------------------------------------|
|-----------------------------------------------|
|
|~~~~~~~~~~
|-----------------------------------------------|
|-----------------------------------------------|
|---(14)----------------------------------------|
|-----------------------------------------------|
|-----------------------------------------------|
|-----------------------------------------------|
|
|-----------------------------------------------|
|-----------5-----3---3-3-5-------x-----x--x-x--|
|-----------5-----4---4-4-5-------x-----x--x-x--|
|-----------5-----4---4-4-5-------x-----x--x-x--|
|-------------------0---0-0---------------------|
|-----------------------------------------------|


|--(8)--8-----------8-------------8------------8--|
|-------------------------------------------------|
|--(7)r-7b9r(7)p5---5h=7p==5------5--7b9==(7)-(7)-|
|-----------------------------7-------------------|
|-------------------------------------------------|
|-------------------------------------------------|
|
|   \1______________/
|   ~~~~~~~~~~~~~~~~~~~~~~~~~~~~~~~~~~~~~~~~~~~~~~~
|-------------------------------------------------|
|-------------------------------------------------|
|-(14)------------(14)---(14)---(14)--------------|
|-------------------------------------------------|
|-------------------------------------------------|
|-------------------------------------------------|
|
|-------------------------------------------------|
|---x---x----5---------3--------------------------|
|---x---x----5---------4------4---4--5---------2--|
|---x---x----5---------4------5---5--7-----4---2--|
|---0---------------------------------------------|
|-------------------------------------------------|


|--(8)---------------------------|
|--------------------------------|
|---7r---7b9r7---7p5---5---------|
|--------------------7---7p5---5-|
|----------------------------7---|
|--------------------------------|
|
|~~~~~~
|--------------------------------|
|--------------------------------|
|-(14)---------------------------|
|--------------------------------|
|--------------------------------|
|--------------------------------|
|
|--------------------------------|
|------5-----3---3-3---5-x-x-x-x-|
|------5-----4---4-4---5-x-x-x-x-|
|------5-----4---4-4---5-x-x-x-x-|
|--------------0---0---0---------|
|--------------------------------|


|------------------------------|---------------------|--------------------|
|------------------------------|---------------------|--------------------|
|--------5-7p5---5-------------|---------------------|--------------------|
|---6--7-------7---x-5-7-(7)---|---7-----------------|--------------------|
|------------------------------|---7-----------------|--------------------|
|------------------------------|---------------------|--------------------|
|
|   ~~~~~~~~~~~~~~~~~~~~~~~~~~~~~~~~~~~
|------------------------------|---------------------|--------------------|
|------------------------------|---------------------|--------------------|
|-(14)-------------------------|-(14)\---------------|--------------------|
|------------------------------|---------------------|--------------------|
|------------------------------|---------------------|--------------------|
|------------------------------|---------------------|--------------------|
|
|------------------------------|---------------------|--------------------|
|---x--x-5-----3---------------|---------------------|--------------------|
|---x--x-5-----4---4-4-5-------|---------------------|--------------------|
|---x--x-5-----4---5-5-7-----7-|---7-----------------|-------------7p5p0--|
|---0---------------------9--7-|---7-----------------|--------------------|
|------------------------------|---5---5-5-5-5-5-5-5-|-5-5-5-5-5-5--------|


  D                                    (A)
  Gtr III
|-2--2--0-2-2-2-|-0-2-2-2-2-(2)-2-2--|-----------------|-------------------||
|-3--3--3-3-3-3-|-3-3-3-3-3-(3)-3-3--|-----------------|-------------------||
|-2--2--0-2-2-2-|-0-2-2-2-2-(2)-2-2--|-----------------|-------------------||
|-0--0--0-0-0-0-|-0-0-0-0-0-(0)-0-0--|-----------------|-------------7p5p0-||
|---------------|--------------------|-----------------|-------------------||
|---------------|--------------------|-5-5-5-5-5-5-5-5-|-5-5-5-5-5-5-------||
|
| Gtr IV
|---------------|--------------------|-----------------|-------------------||
|---------------|--------------------|-----------------|-------------------||
|---------------|--------------------|-----------------|-------------------||
|---------------|--------------------|-----------------|-2-2-2-2-2-2-2---2-||
|---------------|--------------------|-----------------|-0-0-0-0-0-0-0---0-||
|---------------|--------------------|-----------------|-------------------||


  original tempo 
  D              F                      G
 
|-2------------|-^5------(5)---4s5--3-|-(3)------3--5-5s7--5-|
|-3------------|-^5------(5)----------|----------------------|
|-2------------|-^5------(5)---4s5--4-|-(4)------4--5-5s7--5-|
|-0------------|----------------------|----------------------|
|--------------|----------------------|----------------------|
|--------------|----------------------|----------------------|


  F                         C                F
  
|-(5)------4s5--3-1---|-1h3p1-0---(0)------|-^5------(5)---4s5--3--|
|---------------------|-------0---(0)------|-^5------(5)-----------|
|-(5)------4s5--4-2---|-2h3p2-0---(0)------|-^5------(5)---4s5--4--|
|---------------------|--------------------|-----------------------|
|---------------------|--------------------|-----------------------|
|---------------------|--------------------|-----------------------|


                                               Third Verse
  G                      F                      F   C
  
|-(3)------3--5-5s7--5-|-(5)------4s5--3-1---||-1h3p1-0---(0)-------|
|----------------------|---------------------||---------------------|
|-(4)------4--5-5s7--5-|-(5)------4s5--4-2---||-2h3p2-0---(0)-------|
|----------------------|---------------------||---------------------|
|----------------------|---------------------||---------------------|
|----------------------|---------------------||---------------------|


  F                               C
  
|-------------------------------|---------------|
|-------15b17--15b17-(15)-15-13-|-13------------|
|-------------------------------|---------------|
|-------------------------------|---------------|
|-------------------------------|---------------|
|-------------------------------|---------------|


  F
 
|--------------------------------|
|--------13-15b17--15b17-15--13--|
|-----14-------------------------|
|--------------------------------|
|--------------------------------|
|--------------------------------|


  C                              F
 
|-15---------------------------|---------------------------------|
|-----15b17==(15)---(15)r------|---------13-----15b17--15--13----|
|------------------------------|---12s14-----14---------------14-|
|------------------------------|---------------------------------|
|------------------------------|---------------------------------|
|------------------------------|---------------------------------|


  C
  
|-15-------------------------------|
|----15b17==(15)-(15)---(15)r------|
|----------------------------------|
|----------------------------------|
|----------------------------------|
|----------------------------------|


|-----13-------(13)---13------13-------|-(13)---13------13-------(13)---13------13-----------|
|-----13-------(13)---13------13-------|-(13)---13------13-------(13)---13------13-----------|
|-----12b14====(12)r--12b14---12b14====|=(12)r--12b14---12b14====(12)r--12b14---12b14--12b14-|
|--------------------------------------|-----------------------------------------------------|
|--------------------------------------|-----------------------------------------------------|
|--------------------------------------|-----------------------------------------------------|
|
| Gtr IV
|-0------------------------------------|------------------------------------------------1----|
|-1------------------------------------|------------------------------------------------1----|
|-0----2--------(2)----0----0h=2-------|--(2)----0----0h=2--------(2)----0----0h=2------2----|
|-2----3--------(3)----3-------3-------|--(3)----3-------3--------(3)----3-------3------3----|
|-3----3--------(3)----3-------3-------|--(3)----3-------3--------(3)----3-------3------3----|
|------1--------(1)----1-------1-------|--(1)----1-------1--------(1)----1-------1------1----|


 Chorus
|-------------12----12----12----12----12-|
|----------------------------------------|
|-12b14r(12)-----12----12----12----12----|
|----------------------------------------|
|----------------------------------------|
|----------------------------------------|
|
|--0-----------0-----0--0-----0--0-----0-|
|--1-----------1-----1--1-----1--1-----1-|
|--0-----------0-----0--0-----0--0-----0-|
|--2-----------2-----2--2-----2--2-----2-|
|--3-----------3-----3--3-----3--3-----3-|
|----------------------------------------|


  Gtr IV
  C  

|----12----12----12----11-------10----|
|-------------------------------------|
|-12----12----12----11----11-10----10-|
|-------------------------------------|
|-------------------------------------|
|-------------------------------------|


     F
   
|-------17----17----17----17-------16----|----17-------16-------17----17----17-|
|----------------------------------------|-------------------------------------|
|-10s17----17----17----17----17-16----16-|-17----17-16----16-17----17----17----|
|----------------------------------------|-------------------------------------|
|----------------------------------------|-------------------------------------|
|----------------------------------------|-------------------------------------|


  C
 
|-------12----12----12----12----12----12-|----12----12----12----11-------10----|
|----------------------------------------|-------------------------------------|
|-10s12----12----12----12----12----12----|-12----12----12----11----11-10----10-|
|----------------------------------------|-------------------------------------|
|----------------------------------------|-------------------------------------|
|----------------------------------------|-------------------------------------|


     F
  
|-------17----17----17----17-------16-----|
|-----------------------------------------|
|-10s17----17----17----17----17-16----16--|
|-----------------------------------------|
|-----------------------------------------|
|-----------------------------------------|


  
|----17-------16-------17----17---|
|---------------------------------|
|-17----17-16----16-17----17------|
|---------------------------------|
|---------------------------------|
|---------------------------------|


                                  C
   
|-13------13------13-------(13)------|-------------------------------|
|-13------13------13-------(13)------|-------------------------------|
|-12b14---12b14---12b14====(12)r--12-|-(12)--------------------------|
|------------------------------------|--12b14==(12)--(12)---(12)r----|
|------------------------------------|-------------------------------|
|------------------------------------|-------------------------------|


  F                                      C
   
|-13------13------13-------(13)--------|--------------------------------|-----||
|-13------13------13-------(13)--13----|--------------------------------|-----||
|-12b14---12b14---12b14====(12)r----12-|-12-----------------------------|-----||
|--------------------------------------|-12b14==(12)--(12)---(12)r------|-----||
|--------------------------------------|--------------------------------|-----||
|--------------------------------------|--------------------------------|-----||


 Fourth Verse
  C
 
|-------------------------|
|-------------------------|
|------------5--(5)-----5-|
|------5---5s7---5--------|
|----5s7------------5h7---|
|-------------------------|


  F                               C
  
|-------------------------------|---------------------|
|-------------------------------|---------------------|
|-----5-(5)---(5)--5-(5)-5--(5)-|------5--5-7p5---5---|
|-5h7--------------5h=7--5------|------5--------7-----|
|----------------------------7--|-5h=7----------------|
|-------------------------------|---------------------|


    F                       C                           F
   
|-------------------------|---------------------------|--------------------|
|-------------------------|----15b17---15b17--15--13--|-13----------13-----|
|---5----5-(5)---(5)------|---------------------------|-----14-------------|
|-5s7--5s7-(7)---(7)------|---------------------------|--------------------|
|-------------------------|---------------------------|--------------------|
|-------------------------|---------------------------|--------------------|


  C                                                F
  Gtr III
|------------------------13-14-15------|------------------------------------|
|-13---(13)-15b18---(15)----------13---|-15b17--15-13---(13)--13---13-------|
|--------------------------------------|---------------------------12b14====|
|--------------------------------------|------------------------------------|
|--------------------------------------|------------------------------------|
|--------------------------------------|------------------------------------|
|
| Gtr IV
|--0-----0--------0---0------0--0----0-|--0---------------------------------|
|--1-----1--------1---1------1--1----1-|--1---------------------------------|
|--0-----0--------0---0------0--0----0-|--0---------2----(2)---0-0h=2-------|
|--2-----2--------2---2------2--2----2-|--2---------3----(3)---3----3-------|
|--3-----3--------3---3------3--3----3-|--3---------3----(3)---3----3-------|
|--------------------------------------|------------1----(1)---1----1-------|


|--------13------13-------(13)---13------13-----------|
|-(13)---13------13-------(13)---13------13-----------|
|-(12)r--12b14---12b14====(12)r--12b14---12b14--12b14-|
|-----------------------------------------------------|
|-----------------------------------------------------|
|-----------------------------------------------------|
|
|------------------------------------------------1----|
|------------------------------------------------1----|
|--(2)----0----0h=2--------(2)----0----0h=2------2----|
|--(3)----3-------3--------(3)----3-------3------3----|
|--(3)----3-------3--------(3)----3-------3------3----|
|--(1)----1-------1--------(1)----1-------1------1----|


 Chorus
  C
  Gtr IV
  
|------12----12----12----12----12-|----12----12----12----11-------10----|
|---------------------------------|-------------------------------------|
|-12------12----12----12----12----|-12----12----12----11----11-10----10-|
|---------------------------------|-------------------------------------|
|---------------------------------|-------------------------------------|
|---------------------------------|-------------------------------------|


     F
  
|-------17----17----17----17-------16----|
|----------------------------------------|
|-10s17----17----17----17----17-16----16-|
|----------------------------------------|
|----------------------------------------|
|----------------------------------------|


  
|----17-------16-------17----17--------|
|--------------------------------------|
|-17----17-16----16-17----17----17s12--|
|--------------------------------------|
|--------------------------------------|
|--------------------------------------|


     C
     
|-------12----12----12----12----12----12-|----12----12----12----11-------10-----|
|----------------------------------------|--------------------------------------|
|-10s12----12----12----12----12----12----|-12----12----12----11----11-10----10--|
|----------------------------------------|--------------------------------------|
|----------------------------------------|--------------------------------------|
|----------------------------------------|--------------------------------------|


     F
     
|-------17----17----17----17-------16----|
|----------------------------------------|
|-10s17----17----17----17----17-16----16-|
|----------------------------------------|
|----------------------------------------|
|----------------------------------------|


                                                                      C
  
|----17-------16-------17----17---|-13------13------13-------(13)--------|
|---------------------------------|-13------13------13-------(13)--13----|
|-17----17-16----16-17----17------|-12b14---12b14---12b14====(12)r----12-|
|---------------------------------|--------------------------------------|
|---------------------------------|--------------------------------------|
|---------------------------------|--------------------------------------|


                     F                                 C
   
|------------------|-13------13------13-------(13)--------|
|-13---------------|-13------13------13-------(13)--13----|
|-12---------------|-12b14---12b14---12b14====(12)r----12-|
|-12b14------------|--------------------------------------|
|------------------|--------------------------------------|
|------------------|--------------------------------------|


   
|-------------------|----------|-||
|-13----------------|-(13)-----|-||
|-12----------------|-(12)-----|-||
|-12b14=============|=(12)r----|-||
|-------------------|----------|-||
|-------------------|----------|-||





Comments


Popular Led Zeppelin tabs & chords
Houses Of The Holy 5 Bass Tabs
Rock And Roll Bass Tabs
Achilles Last Stand Drum Tabs
Black Dog 4 Tabs
Boogie With Stu 1 Tabs
I Can't Quit You Baby 1 Tabs
Out On The Tiles 1 Tabs
Ten Years Gone 6 Tabs
Thats The Way Live Tabs
The Ocean 5 Tabs


Song lyrics



↑ Back to top | Tablatures and chords are parodies/interpretations of the original songs. You may use it for private study, scholarship, research or language learning purposes only
© 2014 AZChords.com Contact us | Privacy policy | DMCA | Add/correct tabs | Request tabs | Top 50 tabs