>
 >
Down By The Seaside 2

Down By The Seaside 2 Guitar Tabs

Led Zeppelin - Down By The Seaside 2 chords, tabs, tablatures, lyrics

Guitar lessons | Add/correct | Request | Top 50 tabs Artists:  A B C D E F G H I J K L M N O P Q R S T U V W X Y Z 0-9

Down By The Seaside 2 Guitar Tabs – Led Zeppelin

CD, Sheet music, Poster

Do you like Down By The Seaside 2? Share with your friends now
Drum TabsTabsTabs v2Tabs v3Tabs v4
I'm sorry if this tab is confusing.. I was in a hurry...
                                                                           Standard Tuning

  
|5-----------------5---4-|------------3---5-7---5-|
|5-----------------------|------------------------|
|5-----------------5---4-|------------4---5-7---5-|
|------------------------|------------------------|
|------------------------|------------------------|
|------------------------|------------------------|
                                                                           
|1-----1---1-1---1-1-----|3-----3-----3---3-3-----|
|1-----1---1-1---1-1-----|3-----3-----3---3-3-----|
|2-----2---2-2---2-2-----|4-----4-----4---4-4-----|
|3-----3---3-3---3-3-----|5-----5-----5---5-5-----|
|3-----3---3-3---3-3-----|5-----5-----5---5-5-----|
|1-----1---1-1---1-1-----|3-----3-----3---3-3-----|


|------------5---3-1-----|1-3-1-0-----------------|5-----------------5---4-|
|------------------------|------------------------|5-----------------------|
|------------5---4-2-----|2-3-2-0-----------------|5-----------------5---4-|
|------------------------|------------------------|------------------------|
|------------------------|------------------------|------------------------|
|------------------------|------------------------|------------------------|
                                                                           |
|1-----1-----1---1-1-----|1---0-0-----------------|1-----1---1-1---1-1-----|
|1-----1-----1---1-1-----|1---1-1-----------------|1-----1---1-1---1-1-----|
|2-----2-----2---2-2-----|2---0-0-----------------|2-----2---2-2---2-2-----|
|3-----3-----3---3-3-----|3---2-2-----------------|3-----3---3-3---3-3-----|
|3-----3-----3---3-3-----|3---3-3-----------------|3-----3---3-3---3-3-----|
|1-----1-----1---1-1-----|1-----------------------|1-----1---1-1---1-1-----|


|------------3---5-7---5-|------------5---3-1-----|
|------------------------|------------------------|
|------------4---5-7---5-|------------5---4-1-----|
|------------------------|------------------------|
|------------------------|------------------------|
|------------------------|------------------------|
                                                  
|3-----3---3-3---3-3-----|1-----1---1-1---1-1-----|
|3-----3---3-3---3-3-----|1-----1---1-1---1-1-----|
|4-----4---4-4---4-4-----|2-----2---2-2---2-2-----|
|5-----5---5-5---5-5-----|3-----3---3-3---3-3-----|
|5-----5---5-5---5-5-----|3-----3---3-3---3-3-----|
|3-----3---3-3---3-3-----|1-----1---1-1---1-1-----|


|1-3-1-0-----------------|------------------------|------------------------|
|------------------------|------------------------|------------------------|
|2-3-2-0-----------------|------------------------|------------------------|
|------------------------|------------------------|------------5---------5-|
|------------------------|------------------------|----------7-------7-----|
|------------------------|------------------------|------------------------|
                                                                           |
|1-----0-0-----0---0-0---|1-----1---1-1---1-1---1-|0-----0---0-0---0-0---0-|
|1-----1-1-----1---1-1---|1-----1---1-1---1-1---1-|1-----1---1-1---1-1---1-|
|2-----0-0-----0---0-0---|2-----2---2-2---2-2---2-|0-----0---0-0---0-0---0-|
|3-----2-2-----2---2-2---|3-----3---3-3---3-3---3-|2-----2---2-2---2-2---2-|
|3-----3-3-----3---3-3---|3-----3---3-3---3-3---3-|3-----3---3-3---3-3---3-|
|1-----------------------|1-----1---1-1---1-1---1-|------------------------|
        Down by the seaside......


|------------------------|------------------------|------------------------|
|------------------------|------------------------|------------------------|
|------------------------|------------------------|------------------------|
|------------------------|------------------------|------------------------|
|------------3---3-----3-|5-7---------7-5-3---3---|------------3---3-----3-|
|----------5-------5-----|----------------------5-|1---------5-------5-----|
                                                                           
|1-----1---1-1---1-1---1-|0-----0---0-0---0-0---0-|1-----1---1-1---1-1---1-|
|1-----1---1-1---1-1---1-|1-----1---1-1---1-1---1-|1-----1---1-1---1-1---1-|
|2-----2---2-2---2-2---2-|0-----0---0-0---0-0---0-|2-----2---2-2---2-2---2-|
|3-----3---3-3---3-3---3-|2-----2---2-2---2-2---2-|3-----3---3-3---3-3---3-|
|3-----3---3-3---3-3---3-|3-----3---3-3---3-3---3-|3-----3---3-3---3-3---3-|
|1-----1---1-1---1-1---1-|------------------------|1-----1---1-1---1-1---1-|


|------------------------|------13--------1313----|----1313--------1313----|
|------------------------|------13--------1313----|----1313--------1313----|
|------------------------|------14--------1414----|----1414--------1414--14|
|------------------------|------------------------|------------------------|
|5-7---------7-5-3---3---|------------------------|------------------------|
|----------------------5-|------------------------|------------------------|
                                                                           
|0-----0---0-0---0-0---0-|0-----------------------|----------------------1-|
|1-----1---1-1---1-1---1-|1-----------------------|----------------------1-|
|0-----0---0-0---0-0---0-|0-----2---------0-2-----|----------------------2-|
|2-----2---2-2---2-2---2-|2-----3---------3-3-----|----3-3---------3-3---3-|
|3-----3---3-3---3-3---3-|3-----3---------3-3-----|----3-3---------3-3---3-|
|------------------------|------1---------1-1-----|----1-1---------1-1---1-|


|------12--12--12--12--12|--12--12--12--11----10--|--17--17--17--17----16--|
|------------------------|------------------------|------------------------|
|1412----12--12--12--12--|12--12--12--11--1110--10|17--17--17--17--1716--16|
|------------------------|------------------------|------------------------|
|------------------------|------------------------|------------------------|
|------------------------|------------------------|------------------------|
                                                                           
|0-----0---0-0---0-0---0-|0-----0---0-0---0-0---0-|1-----1---1-1---1-1---1-|
|1-----1---1-1---1-1---1-|1-----1---1-1---1-1---1-|1-----1---1-1---1-1---1-|
|0-----0---0-0---0-0---0-|0-----0---0-0---0-0---0-|2-----2---2-2---2-2---2-|
|2-----2---2-2---2-2---2-|2-----2---2-2---2-2---2-|3-----3---3-3---3-3---3-|
|3-----3---3-3---3-3---3-|3-----3---3-3---3-3---3-|3-----3---3-3---3-3---3-|
|------------------------|------------------------|1-----1---1-1---1-1---1-|


|--17----16----17--17----|--12--12--12--12--12--12|--12--12--12--11----10--|
|------------------------|------------------------|------------------------|
|17--1716--1617--17--17--|12--12--12--12--12--12--|12--12--12--11--1110--10|
|------------------------|------------------------|------------------------|
|------------------------|------------------------|------------------------|
|------------------------|------------------------|------------------------|
                                                                          
|1-----1---1-1---1-1---1-|0-----0---0-0---0-0---0-|0-----0---0-0---0-0---0-|
|1-----1---1-1---1-1---1-|1-----1---1-1---1-1---1-|1-----1---1-1---1-1---1-|
|2-----2---2-2---2-2---2-|0-----0---0-0---0-0---0-|0-----0---0-0---0-0---0-|
|3-----3---3-3---3-3---3-|2-----2---2-2---2-2---2-|2-----2---2-2---2-2---2-|
|3-----3---3-3---3-3---3-|3-----3---3-3---3-3---3-|3-----3---3-3---3-3---3-|
|1-----1---1-1---1-1---1-|------------------------|------------------------|


|--17--17--17--17----16--|--17----16----17--17----|13----13----13----------|
|------------------------|------------------------|13----13----13----------|
|17--17--17--17--1716--16|17--1716--1617--17------|14----14----14--------12|
|------------------------|------------------------|----------------------10|
|------------------------|------------------------|------------------------|
|------------------------|------------------------|------------------------|
                                                                           
|1-----1---1-1---1-1---1-|1-----1---1-1---1-1---1-|1-----1-----1---------0-|
|1-----1---1-1---1-1---1-|1-----1---1-1---1-1---1-|1-----1-----1---------1-|
|2-----2---2-2---2-2---2-|2-----2---2-2---2-2---2-|2-----2-----2---------0-|
|3-----3---3-3---3-3---3-|3-----3---3-3---3-3---3-|3-----3-----3---------2-|
|3-----3---3-3---3-3---3-|3-----3---3-3---3-3---3-|3-----3-----3---------3-|
|1-----1---1-1---1-1---1-|1-----1---1-1---1-1---1-|1-----1-----1-----------|
                                                    People turned away


|------------------------|13----13----13----------|
|------------------------|13----13----13----------|
|12----------------------|14----14----14----------|
|10----------------------|------------------------|
|------------------------|------------------------|
|------------------------|------------------------|
 |                                                 |
|0-----------------------|1-----1-----1---------0-|
|1-----------------------|1-----1-----1---------1-|
|0-----------------------|2-----2-----2---------0-|
|2-----------------------|3-----3-----3---------2-|
|3-----------------------|3-----3-----3---------3-|
|------------------------|1-----1-----1-----------|
                           People turned away.....


|8-----------------------|(8)---------------------|
|8-----------------------|(8)---------------------|
|9-----------------------|(9)---------------------|
|------------------------|------------------------|
|------------------------|------------------------|
|------------------------|------------------------|
                                                  
|0-----------------------|(0)---------------------|
|1-----------------------|(1)---------------------|
|0-----------------------|(0)---------------------|
|2-----------------------|(2)---------------------|
|3-----------------------|(3)---------------------|
|------------------------|------------------------|


|------------------------|------------------------|------------------------|
|------------------------|------------------------|------------------------|
|------------------------|9-7-5-------------5-----|------------------5---7-|
|------------5-----5-----|--------------5-7-------|------5---5-------------|
|3---------7-----7-------|------------------------|5---7---7---------------|
|------------------------|------------------------|------------------------|
                                                                           |
|1-----0-0-----0---0-0---|1-----1---1-1---1-1---1-|0-----0---0-0---0-0---0-|
|1-----1-1-----1---1-1---|1-----1---1-1---1-1---1-|1-----1---1-1---1-1---1-|
|2-----0-0-----0---0-0---|2-----2---2-2---2-2---2-|0-----0---0-0---0-0---0-|
|3-----2-2-----2---2-2---|3-----3---3-3---3-3---3-|2-----2---2-2---2-2---2-|
|3-----3-3-----3---3-3---|3-----3---3-3---3-3---3-|3-----3---3-3---3-3---3-|
|1-----------------------|1-----1---1-1---1-1---1-|------------------------|
        Down in the city streets......


|------------------------|------------------------|------------------------|
|------------------------|------------------------|------------------------|
|9---7-5-----------5-----|------------------5-----|9-7-5-------------5-----|
|--------------------7-5-|----5---------5-7-----7-|--------------5-7-----7-|
|------------------------|5-7---------------------|------------------------|
|------------------------|------------------------|------------------------|
                                                                           |
|1-----1---1-1---1-1---1-|0-----0---0-0---0-0---0-|1-----1---1-1---1-1---1-|
|1-----1---1-1---1-1---1-|1-----1---1-1---1-1---1-|1-----1---1-1---1-1---1-|
|2-----2---2-2---2-2---2-|0-----0---0-0---0-0---0-|2-----2---2-2---2-2---2-|
|3-----3---3-3---3-3---3-|2-----2---2-2---2-2---2-|3-----3---3-3---3-3---3-|
|3-----3---3-3---3-3---3-|3-----3---3-3---3-3---3-|3-----3---3-3---3-3---3-|
|1-----1---1-1---1-1---1-|------------------------|1-----1---1-1---1-1---1-|


|------------------------|------13--------1313----|----1313--------1313----|
|------------------------|------13--------1313----|----1313--------1313----|
|------------------5-----|------14--------1414----|----1414--------1414--14|
|----5-----------7-------|------------------------|------------------------|
|5-7---------------------|------------------------|------------------------|
|------------------------|------------------------|------------------------|
                                                                           
|0-----0---0-0---0-0---0-|0-----------------------|----------------------1-|
|1-----1---1-1---1-1---1-|1-----------------------|----------------------1-|
|0-----0---0-0---0-0---0-|0-----2---------0-2-----|----------------------2-|
|2-----2---2-2---2-2---2-|2-----3---------3-3-----|----3-3---------3-3---3-|
|3-----3---3-3---3-3---3-|3-----3---------3-3-----|----3-3---------3-3---3-|
|------------------------|------1---------1-1-----|----1-1---------1-1---1-|


|------12--12--12--12--12|--12--12--12--11----10--|--17--17--17--17----16--|
|------------------------|------------------------|------------------------|
|1412----12--12--12--12--|12--12--12--11--1110--10|17--17--17--17--1716--16|
|------------------------|------------------------|------------------------|
|------------------------|------------------------|------------------------|
|------------------------|------------------------|------------------------|
                                                                           
|0-----0---0-0---0-0---0-|0-----0---0-0---0-0---0-|1-----1---1-1---1-1---1-|
|1-----1---1-1---1-1---1-|1-----1---1-1---1-1---1-|1-----1---1-1---1-1---1-|
|0-----0---0-0---0-0---0-|0-----0---0-0---0-0---0-|2-----2---2-2---2-2---2-|
|2-----2---2-2---2-2---2-|2-----2---2-2---2-2---2-|3-----3---3-3---3-3---3-|
|3-----3---3-3---3-3---3-|3-----3---3-3---3-3---3-|3-----3---3-3---3-3---3-|
|------------------------|------------------------|1-----1---1-1---1-1---1-|


|--17----16----17--17----|--12--12--12--12--12--12|--12--12--12--11----10--|
|------------------------|------------------------|------------------------|
|17--1716--1617--17--17--|12--12--12--12--12--12--|12--12--12--11--1110--10|
|------------------------|------------------------|------------------------|
|------------------------|------------------------|------------------------|
|------------------------|------------------------|------------------------|
                                                                           
|1-----1---1-1---1-1---1-|0-----0---0-0---0-0---0-|0-----0---0-0---0-0---0-|
|1-----1---1-1---1-1---1-|1-----1---1-1---1-1---1-|1-----1---1-1---1-1---1-|
|2-----2---2-2---2-2---2-|0-----0---0-0---0-0---0-|0-----0---0-0---0-0---0-|
|3-----3---3-3---3-3---3-|2-----2---2-2---2-2---2-|2-----2---2-2---2-2---2-|
|3-----3---3-3---3-3---3-|3-----3---3-3---3-3---3-|3-----3---3-3---3-3---3-|
|1-----1---1-1---1-1---1-|------------------------|------------------------|


|--17--17--17--17----16--|--17----16----17--17----|13----13----13----------|
|------------------------|------------------------|13----13----13----------|
|17--17--17--17--1716--16|17--1716--1617--17------|14----14----14--------12|
|------------------------|------------------------|----------------------10|
|------------------------|------------------------|------------------------|
|------------------------|------------------------|------------------------|
                                                                           |
|1-----1---1-1---1-1---1-|1-----1---1-1---1-1---1-|1-----1-----1---------0-|
|1-----1---1-1---1-1---1-|1-----1---1-1---1-1---1-|1-----1-----1---------1-|
|2-----2---2-2---2-2---2-|2-----2---2-2---2-2---2-|2-----2-----2---------0-|
|3-----3---3-3---3-3---3-|3-----3---3-3---3-3---3-|3-----3-----3---------2-|
|3-----3---3-3---3-3---3-|3-----3---3-3---3-3---3-|3-----3-----3---------3-|
|1-----1---1-1---1-1---1-|1-----1---1-1---1-1---1-|1-----1-----1-----------|
                                                    People turned away.....


|------------------------|13----13----13----------|
|------------------------|13----13----13----------|
|12----------------------|14----14----14----------|
|10----------------------|------------------------|
|------------------------|------------------------|
|------------------------|------------------------|
                                                  
|0-----------------------|1-----1-----1-----------|
|1-----------------------|1-----1-----1-----------|
|0-----------------------|2-----2-----2-----------|
|2-----------------------|3-----3-----3-----------|
|3-----------------------|3-----3-----3-----------|
|------------------------|1-----1-----1-----------|
                           People turned

|0---------------|(0)-------------|----------------|
|1---------------|(1)-------------|--5--3-33-5-xxxx|
|2---------------|(2)-------------|--5--4-44-5-xxxx|
|2---------------|(2)-------------|------------xxxx|
|0---------------|(0)-------------|------0-0-0-----|
|----------------|----------------|----------------|
                                                  
|----------------|------------0---|(0)-------------|
|----------------|------------0---|(0)-------------|
|----------------|------------2---|(2)-------------|
|----------------|------------2---|(2)-------------|
|----------------|------------0---|(0)-------------|
|----------------|----------------|----------------|


|----------------|------------1515|--------------------------|
|----------------|------------1517|--------17171513--131513--|
|----------------|----------------|----------------14------14|
|----------------|----------------|--------------------------|
|----------------|----------------|--------------------------|
|----------------|----------------|--------------------------|

|----------------|----------------|----------------|
|--5--3----------|--5--3-33-5-----|--5--3----------|
|--5--4----2-----|--5--4-44-5-----|--5--4----2-----|
|-------55---4-2-|----------------|-------55---4-2-|
|0---------------|------------0000|0---------------|
|----------------|----------------|----------------|
                                                   
|0---------------|0---------------|0---------------|
|0---------------|0---------------|0---------------|
|2---------------|2---------------|2---------------|
|2-----------2-2-|2---------2-222-|2---------2-2-2-|
|0-----------0-0-|0---------0-000-|0---------0-0-0-|
|----------------|----------------|----------------|
                                                   
|----------------|----------------|----------------|
|xx5--3-00-1-----|--5--3-33-5-xxxx|xx5--3-00-1-----|
|xx5--4-00-2-xx2-|--5--4-44-5-xxxx|xx5--4-00-2-xx2-|
|xx5--4------xx2-|--5--4-44-5-xxxx|xx5--4------xx2-|
|----------------|----------------|----------------|
|----------------|----------------|----------------|


|------------5-5-|----------------|----5-5---------|
|131513-------8--|----------------|-----85---------|
|----------9----7|5-75-9--5-7-9-5-|--79---75-75-75-|
|----------------|----------------|---------7--7--7|
|----------------|----------------|----------------|
|----------------|----------------|----------------|
                                                   
|----------------|----------------|----------------|
|--5--3-33-5-----|--5--3----------|--5--3-33-5-----|
|--5--4-44-5-----|--5--4----2-----|--5--4-44-5-----|
|----------------|-------55---4-2-|----------------|
|------------0000|0---------------|------------0000|
|----------------|----------------|----------------|

|----------------|----------------|----------------|
|----------------|----------------|----------------|
|----------------|----------------|----------------|
|--5--4-24-5-----|--5--4-20-2-----|--5--4-24-5-----|
|----------------|------------2-0-|----------------|
|----------------|----------------|----------------|
 
|----------------|----------------|----------------|
|--5--3-33-5-xxxx|xx5--3-00-1-----|--5--3-33-5-xxxx|
|--5--4-44-5-xxxx|xx5--4-00-2-xx2-|--5--4-44-5-xxxx|
|--5--4-44-5-xxxx|xx5--4------xx2-|--5--4-44-5-xxxx|
|----------------|----------------|----------------|
|----------------|----------------|----------------|


|----------------|-----------585--|---------8--------|
|----------------|------------85--|--------8-108-8910|
|6------5--------|5------5579---75|-75-5-79-----9----|
|--75-555-------5|-757567---------|7--7--------------|
|----7-753-3-357-|----------------|------------------|
|---------5-5----|----------------|------------------|
 
|----------------|----------------|----------------|
|--5--3----------|--5--3-33-5-----|--5--3----------|
|--5--4----2-----|--5--4-44-5-----|--5--4----2-----|
|-------55---4-2-|----------------|-------55---4-2-|
|0---------------|------------0000|0---------------|
|----------------|----------------|----------------|
 
|----------------|----------------|----------------|
|----------------|----------------|----------------|
|----------------|----------------|----------------|
|--5--4-20-2-----|--5--4-24-5-----|--5--4-20-2-----|
|------------2-0-|----------------|------------2-0-|
|----------------|----------------|----------------|
 
|----------------|----------------|----------------|
|xx5--3-00-1-----|--5--3-33-5-xxxx|xx5--3-00-1-----|
|xx5--4-00-2-xx2-|--5--4-44-5-xxxx|xx5--4-00-2-xx2-|
|xx5--4------xx2-|--5--4-44-5-xxxx|xx5--4------xx2-|
|----------------|----------------|----------------|
|----------------|----------------|----------------|


|8--81012--108--8--|-5---------8----|-------------8--|
|-10-----10---10-85|-5--------------|----------------|
|------------------|7-5-7-5-579-----|-75-575-5-79----|
|------------------|---7-7-7--------|---7---7--------|
|------------------|----------------|----------------|
|------------------|----------------|----------------|
 
|----------------|----------------|----------------|
|--5--3-33-5-----|--5--3----------|--5--3-33-5-----|
|--5--4-44-5-----|--5--4----2-----|--5--4-44-5-----|
|----------------|-------55---4-2-|----------------|
|------------0000|0---------------|------------0000|
|----------------|----------------|----------------|
 
|----------------|----------------|----------------|
|----------------|----------------|----------------|
|----------------|----------------|----------------|
|--5--4-24-5-----|--5--4-20-2-----|--5--4-24-5-----|
|----------------|------------2-0-|----------------|
|----------------|----------------|----------------|
 
|----------------|----------------|----------------|
|--5--3-33-5-xxxx|xx5--3-00-1-----|--5--3-33-5-xxxx|
|--5--4-44-5-xxxx|xx5--4-00-2-xx2-|--5--4-44-5-xxxx|
|--5--4-44-5-xxxx|xx5--4------xx2-|--5--4-44-5-xxxx|
|----------------|----------------|----------------|
|----------------|----------------|----------------|


|88--8---8-----8-|----------------|----------------|
|----------------|--8-------------|----------------|
|-975575-5-7-9---|----97-75-5-----|--575-5---------|
|-------7--------|---------7--75-5|67---7-757------|
|----------------|--------------7-|----------------|
|----------------|----------------|----------------|
 
|----------------|----------------|----------------|
|--5--3----------|--5--3-33-5-----|--5--3----------|
|--5--4----2-----|--5--4-44-5-----|--5--4----2-----|
|-------55---4-2-|----------------|-------55---4-2-|
|0---------------|------------0000|0---------------|
|----------------|----------------|----------------|
 
|----------------|----------------|----------------|
|----------------|----------------|----------------|
|----------------|----------------|----------------|
|--5--4-20-2-----|--5--4-24-5-----|--5--4-20-2-----|
|------------2-0-|----------------|------------2-0-|
|----------------|----------------|----------------|
 
|----------------|----------------|----------------|
|xx5--3-00-1-----|--5--3-33-5-xxxx|xx5--3-00-1-----|
|xx5--4-00-2-xx2-|--5--4-44-5-xxxx|xx5--4-00-2-xx2-|
|xx5--4------xx2-|--5--4-44-5-xxxx|xx5--4------xx2-|
|----------------|----------------|----------------|
|----------------|----------------|----------------|

|----------------|----------------|----------------|
|----------------|----------------|----------------|
|----------------|----------------|----------------|
|7---------------|----------------|----------------|
|7---------------|----------------|----------------|
|----------------|----------------|----------------|
 
|----------------|----------------|2---2---02--2--2|
|----------------|----------------|3---3---33--3--3|
|----------------|----------------|2---2---02--2--2|
|----------------|------------750-|0---0---00--0--0|
|0-0-0-0-0-0-0-0-|0-0-0-0-0-0-----|----------------|
|----------------|----------------|----------------|
 
|----------------|----------------|----------------|
|----------------|----------------|----------------|
|----------------|----------------|----------------|
|----------------|------------750-|----------------|
|----------------|-----------0----|----------------|
|----------------|----------------|----------------|

|----------------|----------------|----------------|
|----------------|----------------|----------------|
|----------------|----------------|----------------|
|----------------|----------------|----------------|
|----------------|----------------|----------------|
|----------------|----------------|----------------|
  Can you still do the twist.....

|02--2-22--2-2---|----------------|----------------|
|33--3-33--3-3---|----------------|----------------|
|22--2-22--2-2---|----------------|----------------|
|00--0-00--0-0---|----------------|------------750-|
|----------------|0-0-0-0-0-0-0-0-|0-0-0-0-0-0-----|
|----------------|----------------|----------------|
 
|----------------|----------------|----------------|
|----------------|----------------|----------------|
|----------------|----------------|----------------|
|----------------|----------------|2-2-2-2-2-2-2-2-|
|----------------|----------------|0-0-0-0-0-0-0-0-|
|----------------|----------------|----------------|


|------------------------|5-----------------5---4-|------------3---5-7---5-|
|------------------------|5-----------------------|------------------------|
|------------------------|5-----------------5---4-|------------4---5-7---5-|
|------------------------|------------------------|------------------------|
|------------------------|------------------------|------------------------|
|------------------------|------------------------|------------------------|
                                                                           
|------------------------|1-----1---1-1---1-1-----|3-----3-----3---3-3-----|
|------------------------|1-----1---1-1---1-1-----|3-----3-----3---3-3-----|
|------------------------|2-----2---2-2---2-2-----|4-----4-----4---4-4-----|
|------------------------|3-----3---3-3---3-3-----|5-----5-----5---5-5-----|
|------------------------|3-----3---3-3---3-3-----|5-----5-----5---5-5-----|
|------------------------|1-----1---1-1---1-1-----|3-----3-----3---3-3-----|


|------------5---3-1-----|1-3-1-0-----------------|5-----------------5---4-|
|------------------------|------------------------|5-----------------------|
|------------5---4-2-----|2-3-2-0-----------------|5-----------------5---4-|
|------------------------|------------------------|------------------------|
|------------------------|------------------------|------------------------|
|------------------------|------------------------|------------------------|
 
|1-----1-----1---1-1-----|1---0-0-----------------|1-----1---1-1---1-1-----|
|1-----1-----1---1-1-----|1---1-1-----------------|1-----1---1-1---1-1-----|
|2-----2-----2---2-2-----|2---0-0-----------------|2-----2---2-2---2-2-----|
|3-----3-----3---3-3-----|3---2-2-----------------|3-----3---3-3---3-3-----|
|3-----3-----3---3-3-----|3---3-3-----------------|3-----3---3-3---3-3-----|
|1-----1-----1---1-1-----|1-----------------------|1-----1---1-1---1-1-----|

|------------3---5-7---5-|------------5---3-1-----|
|------------------------|------------------------|
|------------4---5-7---5-|------------5---4-1-----|
|------------------------|------------------------|
|------------------------|------------------------|
|------------------------|------------------------|
                                                  
|3-----3---3-3---3-3-----|1-----1---1-1---1-1-----|
|3-----3---3-3---3-3-----|1-----1---1-1---1-1-----|
|4-----4---4-4---4-4-----|2-----2---2-2---2-2-----|
|5-----5---5-5---5-5-----|3-----3---3-3---3-3-----|
|5-----5---5-5---5-5-----|3-----3---3-3---3-3-----|
|3-----3---3-3---3-3-----|1-----1---1-1---1-1-----|

|1-3-1-0-----------------|------------------------|------------------------|
|------------------------|------------17--17--1513|13----------------------|
|2-3-2-0-----------------|------------------------|------------------------|
|------------------------|------------------------|------------------------|
|------------------------|------------------------|------------------------|
|------------------------|------------------------|------------------------|
 
|1-----0-0-----0---0-0---|1-----1---1-1---1-1---1-|0-----0---0-0---0-0---0-|
|1-----1-1-----1---1-1---|1-----1---1-1---1-1---1-|1-----1---1-1---1-1---1-|
|2-----0-0-----0---0-0---|2-----2---2-2---2-2---2-|0-----0---0-0---0-0---0-|
|3-----2-2-----2---2-2---|3-----3---3-3---3-3---3-|2-----2---2-2---2-2---2-|
|3-----3-3-----3---3-3---|3-----3---3-3---3-3---3-|3-----3---3-3---3-3---3-|
|1-----------------------|1-----1---1-1---1-1---1-|------------------------|
        Out in the country.....


|------------------------|15----------------------|------------------------|
|----------1317--1715--13|----1517----------------|------13----17--15--13--|
|--------14--------------|------------------------|----14----14----------14|
|------------------------|------------------------|------------------------|
|------------------------|------------------------|------------------------|
|------------------------|------------------------|------------------------|
 
|1-----1---1-1---1-1---1-|0-----0---0-0---0-0---0-|1-----1---1-1---1-1---1-|
|1-----1---1-1---1-1---1-|1-----1---1-1---1-1---1-|1-----1---1-1---1-1---1-|
|2-----2---2-2---2-2---2-|0-----0---0-0---0-0---0-|2-----2---2-2---2-2---2-|
|3-----3---3-3---3-3---3-|2-----2---2-2---2-2---2-|3-----3---3-3---3-3---3-|
|3-----3---3-3---3-3---3-|3-----3---3-3---3-3---3-|3-----3---3-3---3-3---3-|
|1-----1---1-1---1-1---1-|------------------------|1-----1---1-1---1-1---1-|


|15----------------------|------13--------1313----|----1313--------1313----|
|--1517------------------|------13--------1313----|----1313--------1313----|
|------------------------|------14--------1414----|----1414--------1414--14|
|------------------------|------------------------|------------------------|
|------------------------|------------------------|------------------------|
|------------------------|------------------------|------------------------|
 
|0-----0---0-0---0-0---0-|0-----------------------|----------------------1-|
|1-----1---1-1---1-1---1-|1-----------------------|----------------------1-|
|0-----0---0-0---0-0---0-|0-----2---------0-2-----|----------------------2-|
|2-----2---2-2---2-2---2-|2-----3---------3-3-----|----3-3---------3-3---3-|
|3-----3---3-3---3-3---3-|3-----3---------3-3-----|----3-3---------3-3---3-|
|------------------------|------1---------1-1-----|----1-1---------1-1---1-|

|------12--12--12--12--12|--12--12--12--11----10--|--17--17--17--17----16--|
|------------------------|------------------------|------------------------|
|1412----12--12--12--12--|12--12--12--11--1110--10|17--17--17--17--1716--16|
|------------------------|------------------------|------------------------|
|------------------------|------------------------|------------------------|
|------------------------|------------------------|------------------------|
 
|0-----0---0-0---0-0---0-|0-----0---0-0---0-0---0-|1-----1---1-1---1-1---1-|
|1-----1---1-1---1-1---1-|1-----1---1-1---1-1---1-|1-----1---1-1---1-1---1-|
|0-----0---0-0---0-0---0-|0-----0---0-0---0-0---0-|2-----2---2-2---2-2---2-|
|2-----2---2-2---2-2---2-|2-----2---2-2---2-2---2-|3-----3---3-3---3-3---3-|
|3-----3---3-3---3-3---3-|3-----3---3-3---3-3---3-|3-----3---3-3---3-3---3-|
|------------------------|------------------------|1-----1---1-1---1-1---1-|

|--17----16----17--17----|--12--12--12--12--12--12|--12--12--12--11----10--|
|------------------------|------------------------|------------------------|
|17--1716--1617--17--17--|12--12--12--12--12--12--|12--12--12--11--1110--10|
|------------------------|------------------------|------------------------|
|------------------------|------------------------|------------------------|
|------------------------|------------------------|------------------------|
 
|1-----1---1-1---1-1---1-|0-----0---0-0---0-0---0-|0-----0---0-0---0-0---0-|
|1-----1---1-1---1-1---1-|1-----1---1-1---1-1---1-|1-----1---1-1---1-1---1-|
|2-----2---2-2---2-2---2-|0-----0---0-0---0-0---0-|0-----0---0-0---0-0---0-|
|3-----3---3-3---3-3---3-|2-----2---2-2---2-2---2-|2-----2---2-2---2-2---2-|
|3-----3---3-3---3-3---3-|3-----3---3-3---3-3---3-|3-----3---3-3---3-3---3-|
|1-----1---1-1---1-1---1-|------------------------|------------------------|

|--17--17--17--17----16--|--17----16----17--17----|13----13----13----------|
|------------------------|------------------------|13----13----13----------|
|17--17--17--17--1716--16|17--1716--1617--17------|14----14----14--------12|
|------------------------|------------------------|----------------------10|
|------------------------|------------------------|------------------------|
|------------------------|------------------------|------------------------|
 
|1-----1---1-1---1-1---1-|1-----1---1-1---1-1---1-|1-----1-----1---------0-|
|1-----1---1-1---1-1---1-|1-----1---1-1---1-1---1-|1-----1-----1---------1-|
|2-----2---2-2---2-2---2-|2-----2---2-2---2-2---2-|2-----2-----2---------0-|
|3-----3---3-3---3-3---3-|3-----3---3-3---3-3---3-|3-----3-----3---------2-|
|3-----3---3-3---3-3---3-|3-----3---3-3---3-3---3-|3-----3-----3---------3-|
|1-----1---1-1---1-1---1-|1-----1---1-1---1-1---1-|1-----1-----1-----------|
                                                    People turned away


|------------------------|13----13----13----------|
|------------------------|13----13----13----------|
|12----------------------|14----14----14----------|
|10----------------------|------------------------|
|------------------------|------------------------|
|------------------------|------------------------|
 
|0-----------------------|1-----1-----1---------0-|
|1-----------------------|1-----1-----1---------1-|
|0-----------------------|2-----2-----2---------0-|
|2-----------------------|3-----3-----3---------2-|
|3-----------------------|3-----3-----3---------3-|
|------------------------|1-----1-----1-----------|
                           People turned away.....


|8-----------------------|(8)---------------------|
|8-----------------------|(8)---------------------|
|9-----------------------|(9)---------------------|
|------------------------|------------------------|
|------------------------|------------------------|
|------------------------|------------------------|
 
|0-----------------------|(0)---------------------|
|1-----------------------|(1)---------------------|
|0-----------------------|(0)---------------------|
|2-----------------------|(2)---------------------|
|3-----------------------|(3)---------------------|
|------------------------|------------------------|


|------------------------|------------------------|------------------------|
|------------------------|------------------------|------------------------|
|------------5---------5-|----5-----------5-5-----|------5---5-7-5---5-----|
|------5-----7---5-------|5-7-------------575-----|------5---------7-------|
|------7-----------5-7---|----------------------7-|5---7-------------------|
|------------------------|------------------------|------------------------|
 
|1-----0-0-----0---0-0---|1-----1---1-1---1-1---1-|0-----0---0-0---0-0---0-|
|1-----1-1-----1---1-1---|1-----1---1-1---1-1---1-|1-----1---1-1---1-1---1-|
|2-----0-0-----0---0-0---|2-----2---2-2---2-2---2-|0-----0---0-0---0-0---0-|
|3-----2-2-----2---2-2---|3-----3---3-3---3-3---3-|2-----2---2-2---2-2---2-|
|3-----3-3-----3---3-3---|3-----3---3-3---3-3---3-|3-----3---3-3---3-3---3-|
|1-----------------------|1-----1---1-1---1-1---1-|------------------------|
        Down in the city streets......


|------------------------|------------------------|------------------------|
|------------------------|------17----17--15--13--|13--------------13------|
|5---5-------------------|------------------------|---14-------------------|
|7---7-------------------|------------------------|------------------------|
|------------------------|------------------------|------------------------|
|------------------------|------------------------|------------------------|
 
|1-----1---1-1---1-1---1-|0-----0---0-0---0-0---0-|1-----1---1-1---1-1---1-|
|1-----1---1-1---1-1---1-|1-----1---1-1---1-1---1-|1-----1---1-1---1-1---1-|
|2-----2---2-2---2-2---2-|0-----0---0-0---0-0---0-|2-----2---2-2---2-2---2-|
|3-----3---3-3---3-3---3-|2-----2---2-2---2-2---2-|3-----3---3-3---3-3---3-|
|3-----3---3-3---3-3---3-|3-----3---3-3---3-3---3-|3-----3---3-3---3-3---3-|
|1-----1---1-1---1-1---1-|------------------------|1-----1---1-1---1-1---1-|


|--------------131415----|------------------------|----1313--------1313----|
|13------15--18------13--|17--1513--------1313----|----1313--------1313----|
|------------------------|------------------14----|----1414--------1414--14|
|------------------------|------------------------|------------------------|
|------------------------|------------------------|------------------------|
|------------------------|------------------------|------------------------|
 
|0-----0---0-0---0-0---0-|0-----------------------|----------------------1-|
|1-----1---1-1---1-1---1-|1-----------------------|----------------------1-|
|0-----0---0-0---0-0---0-|0-----2---------0-2-----|----------------------2-|
|2-----2---2-2---2-2---2-|2-----3---------3-3-----|----3-3---------3-3---3-|
|3-----3---3-3---3-3---3-|3-----3---------3-3-----|----3-3---------3-3---3-|
|------------------------|------1---------1-1-----|----1-1---------1-1---1-|

|------12--12--12--12--12|--12--12--12--11----10--|--17--17--17--17----16--|
|------------------------|------------------------|------------------------|
|12------12--12--12--12--|12--12--12--11--1110--10|17--17--17--17--1716--16|
|------------------------|------------------------|------------------------|
|------------------------|------------------------|------------------------|
|------------------------|------------------------|------------------------|
 
|0-----0---0-0---0-0---0-|0-----0---0-0---0-0---0-|1-----1---1-1---1-1---1-|
|1-----1---1-1---1-1---1-|1-----1---1-1---1-1---1-|1-----1---1-1---1-1---1-|
|0-----0---0-0---0-0---0-|0-----0---0-0---0-0---0-|2-----2---2-2---2-2---2-|
|2-----2---2-2---2-2---2-|2-----2---2-2---2-2---2-|3-----3---3-3---3-3---3-|
|3-----3---3-3---3-3---3-|3-----3---3-3---3-3---3-|3-----3---3-3---3-3---3-|
|------------------------|------------------------|1-----1---1-1---1-1---1-|


|--17----16----17--17----|--12--12--12--12--12--12|--12--12--12--11----10--|
|------------------------|------------------------|------------------------|
|17--1716--1617--17--17--|12--12--12--12--12--12--|12--12--12--11--1110--10|
|------------------------|------------------------|------------------------|
|------------------------|------------------------|------------------------|
|------------------------|------------------------|------------------------|
 
|1-----1---1-1---1-1---1-|0-----0---0-0---0-0---0-|0-----0---0-0---0-0---0-|
|1-----1---1-1---1-1---1-|1-----1---1-1---1-1---1-|1-----1---1-1---1-1---1-|
|2-----2---2-2---2-2---2-|0-----0---0-0---0-0---0-|0-----0---0-0---0-0---0-|
|3-----3---3-3---3-3---3-|2-----2---2-2---2-2---2-|2-----2---2-2---2-2---2-|
|3-----3---3-3---3-3---3-|3-----3---3-3---3-3---3-|3-----3---3-3---3-3---3-|
|1-----1---1-1---1-1---1-|------------------------|------------------------|


|--17--17--17--17----16--|--17----16----17--17----|13----13----13----------|
|------------------------|------------------------|13----13----13----------|
|17--17--17--17--1716--16|17--1716--1617--17------|14----14----14--------12|
|------------------------|------------------------|----------------------10|
|------------------------|------------------------|------------------------|
|------------------------|------------------------|------------------------|
 
|1-----1---1-1---1-1---1-|1-----1---1-1---1-1---1-|1-----1-----1---------0-|
|1-----1---1-1---1-1---1-|1-----1---1-1---1-1---1-|1-----1-----1---------1-|
|2-----2---2-2---2-2---2-|2-----2---2-2---2-2---2-|2-----2-----2---------0-|
|3-----3---3-3---3-3---3-|3-----3---3-3---3-3---3-|3-----3-----3---------2-|
|3-----3---3-3---3-3---3-|3-----3---3-3---3-3---3-|3-----3-----3---------3-|
|1-----1---1-1---1-1---1-|1-----1---1-1---1-1---1-|1-----1-----1-----------|
                                                    People turned away.....


|------------------------|13----13----13------8---|8-----------------------|
|------------------------|13----13----13--------8-|8-----------------------|
|12----------------------|14----14----14----------|9-----------------------|
|10----------------------|------------------------|------------------------|
|------------------------|------------------------|------------------------|
|------------------------|------------------------|------------------------|
 
|0-----------------------|1-----1-----1-----------|0-----------------------|
|1-----------------------|1-----1-----1-----------|1-----------------------|
|0-----------------------|2-----2-----2-----------|0-----------------------|
|2-----------------------|3-----3-----3-----------|2-----------------------|
|3-----------------------|3-----3-----3-----------|3-----------------------|
|------------------------|1-----1-----1-----------|------------------------|
                           People turned            away





Comments


Popular Led Zeppelin tabs & chords
Carouselambra Bass Tabs
D'yer Maker 1 Bass Tabs
Fool In The Rain Bass Tabs
Bring It On Home Drum Tabs
Tangerine 1 Drum Tabs
Babe, I'm Gonna Leave You Tabs
Black Country Woman 1 Tabs
Black Dog 1 Tabs
Moby Dick 1 Tabs
Moby Dick 2 Tabs


Song lyrics



↑ Back to top | Tablatures and chords are parodies/interpretations of the original songs. You may use it for private study, scholarship, research or language learning purposes only
© 2014 AZChords.com Contact us | Privacy policy | DMCA | Add/correct tabs | Request tabs | Top 50 tabs