>
 >
Custard Pie

Custard Pie Guitar Tabs

Led Zeppelin - Custard Pie chords, tabs, tablatures, lyrics

Guitar lessons | Add/correct | Request | Top 50 tabs Artists:  A B C D E F G H I J K L M N O P Q R S T U V W X Y Z 0-9

Custard Pie Guitar Tabs – Led Zeppelin

CD, Sheet music, Poster

Do you like Custard Pie? Share with your friends now
Bass TabsBass Tabs v2Bass Tabs v3Bass Tabs v4Drum TabsTabsTabs v2Tabs v3Tabs v4
Lines: 123

wrote:
 
 
 
 
 
 
 Explanation:                  
 ~~~~~~~~~~~~
 / x         Slide up to x
 \ x         Slide down to x
 (x ^ y)     Bend up, from x to y           if notes are in pasenthesises
 (x v y)     Bend down, from x to y         they are hit once
 ([x] ^ y)   Play y bent, [don't play x]
 (x - y)     Pull off from x to y 
 (x + y)     Hammer-on from x to y
 ~~x,y       Trill x and y
 ~~~x        Wiggle note
 ^~~x        Play note x bent and wiggle
 
 
 ===========================================================================
 This the differant riffs to the song.
 I have not put in the solo, but is an A pentatonic scale.
 Of course there is some movement during the chord 
 changes, but A pentatonic will work if you are 
 new at soloing.
    The song is fairly simple. The riff in A is repeated x number of
 times, then to the part in D.
 Back to the A, finally to E.
   Good Luck, and most important, 
                   HAVE FUN!
 
 
 
 
 
 
 
 
 
 
 
   
   A
 
 --------------------5--3--5------------------------------------------------
 --2-2-2--2-2--2-----5--3--5------------------------------------------------
 --2-2-2--2-2--2-----2--2--2------------------------------------------------
 --2-2-2--4-4--5-----2--2--2------------------------------------------------
 --0-0-0--0-0--0------------------------------------------------------------
 ---------------------------------------------------------------------------
                           
     D       D C#C   C  B A#
 
 ---------------------------------------------------------------------------
 ---------------------------------------------------------------------------
 ----7-------7-6-5----5-4-3-------------------------------------------------
 ----7-------7-6-5----5-4-3-------------------------------------------------
 ----5-------5-4-3----3-2-1-------------------------------------------------
 ---------------------------------------------------------------------------
                           
 
 ===========================================================================
 
   A
 
 --------------------5--3--5------------------------------------------------
 --2-2-2--2-2--2-----5--3--5------------------------------------------------
 --2-2-2--2-2--2-----2--2--2------------------------------------------------
 --2-2-2--4-4--5-----2--2--2------------------------------------------------
 --0-0-0--0-0--0------------------------------------------------------------
 ---------------------------------------------------------------------------
                           
   E      Gsus       F  G
 --0------3-----------------------------------------------------------------
 --0------3-----------------------------------------------------------------
 --1------5-----------------------------------------------------------------
 --2------3----------3---5--------------------------------------------------
 --2------5----------3---5--------------------------------------------------
 --0------3----------1---3--------------------------------------------------
                           
 
 ===========================================================================

                           
2 corrections(suggestions?)
on the main riff:
   A
 


--2-2-2--2-2-2-2-----2--0--2-----------------------------------------------

--2-2-2--2-2-2-2-----2--0--2-----------------------------------------------

--2-2-2--4-4-4-5-----2--0--2-----------------------------------------------

--0-0-0--0-0-0-0-----------------------------------------------------------

and at the end:

   E      C9        F#m  G

--0------3----------2---3--------------------------------------------------

--0------3----------2---3--------------------------------------------------

--1------3----------2---4--------------------------------------------------

--2------2----------4---5--------------------------------------------------

--2------3----------4---5--------------------------------------------------

--0------3----------2---3--------------------------------------------------
Exxon Research and Engineering  |
Annandale, NJ  08801            |    it's a Telecaster"
phone: 908-730-2317             | 

--
+----------------------------------------------------------------------------+
|  Steve Portigal, Dep't of CIS, University of Guelph, Guelph, ON, N1G 2W1   |
|              		Sit down, get up, get out...                         |
+----------------------------------------------------------------------------+





Comments


Popular Led Zeppelin tabs & chords
Hot Dog Bass Tabs
In My Time Of Dying 2 Bass Tabs
In The Evening Bass Tabs
Ozone Baby Bass Tabs
In My Time Of Dying Drum Tabs
Stairway To Heaven Live Drum Tabs
Communication Breakdown 2 Tabs
Freinds Tabs
Some Phs Graff Pres 1 Tabs
Travelling Riverside Blues 2 Tabs


Song lyrics



↑ Back to top | Tablatures and chords are parodies/interpretations of the original songs. You may use it for private study, scholarship, research or language learning purposes only
© 2014 AZChords.com Contact us | Privacy policy | DMCA | Add/correct tabs | Request tabs | Top 50 tabs