» » »

Led Zeppelin, Communication Breakdown Bass tabs (ver.3)

Artists:  A B C D E F G H I J K L M N O P Q R S T U V W X Y Z # 

Communication Breakdown Bass tabs (ver.3)

Led Zeppelin Tabs
 Rating:
4/5 (4 votes)
Communication Breakdown lessons Tabs too difficult? Try these video lessons and learn fast
                    --------------------------------------------------------------

    LED ZEPPELIN - COMUNICATION BREAKDOWN (Page/Jones/Bonham) From
                   LED ZEPPELIN album. Released on January 12th
                   1969
   
    --------------------------------------------------------------

    Bass tab by:PJVillanueva 




              
    Hey, girl, stop what you're doin'! 
    Hey, girl, you'll drive me to ruin. 
    I don't know what it is I like about you, but I like it a lot. 
    Won't you let me hold you, Let me feel your lovin' charms.
 
    Communication Breakdown, It's always the same, 
    I'm having a nervous breakdown, Drive me insane! 

    Hey, babe, I got something I think you ought to know. 
    Hey, babe, I wanna tell you that I love you so. 
    I wanna hold you in my arms, yeah! 
    I'm never gonna let you go, 'Cause I like your charms.
 
    Communication Breakdown, It's always the same, 
    I'm having a nervous breakdown, Drive me insane! 
                
                      SOLO
 
    Communication Breakdown, It's always the same, 
    I'm having a nervous breakdown, Drive me insane! 
             
    Communication breakdown .... I want you to love me
    I want your love ....



    INTRO 


  G|------- ------- ------- -------|------- ------- ------- -------|
  D|-------------------------------|-------------------------------|
  A|-------------------------------|-------------------------------|
  E|-------------------------------|-------------------------------|



  G|------- ------- ------- -------|------- ------- ------- -------|
  D|-------------------------------|-------------------------------|
  A|-------------------------------|----5-------------------5------|
  E|-------------------------------|----------------5--------------| 



  G|------- ------- ------- -------|------- ------- ------- -------|
  D|-------------------------------|-------------------------------|
  A|7------------------------------|----5-------------------5------|
  E|-------------------------------|----------------5--------------| 



  G|------- ------- ------- -------|------- ------- ------- -------|
  D|-------------------------------|-------------------------------|
  A|7------------------------------|----5-------------------5------|
  E|-------------------------------|----------------5--------------| 


    VERSE
    00:11
  G|------- ------- ------- -------|------- ------- ------- -------|
  D|-------------------------------|-------------------------------|
  A|7---7---7---7---7---7---7---7--|7---5-------x-----------5------|
  E|-------------------------------|----------------5--------------|
    Hey                             girl                    stop 



  G|------- ------- ------- -------|------- ------- ------- -------|
  D|-------------------------------|-------------------------------|
  A|7---7---7---7---7---7---7---7--|7---5-------x-----------5------|
  E|-------------------------------|----------------5--------------|
    what        doin'! 
        you're 


  
  G|------- ------- ------- -------|------- ------- ------- -------|
  D|-------------------------------|-------------------------------|
  A|7---7---7---7---7---7---7---7--|7---5-------x-----------5------|
  E|-------------------------------|----------------5--------------|
    Hey                             girl                    You'll



  G|------- ------- ------- -------|------- ------- ------- -------|
  D|-------------------------------|-------------------------------|
  A|7---7---7---7---7---7---7---7--|7---5-------x-----------5------|
  E|-------------------------------|----------------5--------------|
    drive       to  ruin.
        me


    00:22
    I don't know what it is I like about you, but I like it a lot. 
    Won't you let me hold you, Let me feel your lovin' charms.

      
    CHORUS
    00:33
  G|------- ------- ------- ----2--|----2-- ------- ------- -------|
  D|--------------------2---4------|----------------4---2----------|
  A|0---0---0---3---4--------------|------------------------4---0--|
  E|-------------------------------|-------------------------------|
            Communication                       breakdown



  G|------- ------- ------- ----2--|------- ------- ------- -------|
  D|--------------------2---4------|----4-------2------------------|
  A|----0-------0---4--------------|--------------------4-------0--|
  E|-------------------------------|-------------------------------|
                It's        the same
                    always


  G|------- ------- 4---2-- -------|------- ------- ------- 2---4--|
  D|------------------------4------|----2-------3-------4----------|
  A|2-------2-------------------2--|-------------------------------|
  E|-------------------------------|-------------------------------|
                    Having  a   nervous         breakdown 



  G|----2-- ------- ------- -------|------- ------- ------- -------|
  D|------------4-------0---2------|-------------------------------|
  A|----------------------------2--|----2---2-------2-------2------|
  E|-------------------------------|-------------------------------|
                    Drive   insane!
                        me


  G|------- ------- ------- -------|------- ------- ------- -------|
  D|-------------------------------|-------------------------------|
  A/7------------------------------|----5-------------------5------|
  E|-------------------------------|----------------5--------------| 



  G|------- ------- ------- -------|------- ------- ------- -------|
  D|-------------------------------|-------------------------------|
  A|7---7---7---7---7---7---7---7--|7---5-------------------5------|
  E|-------------------------------|----------------5--------------|


    VERSE
    00:50
  G|------- ------- ------- -------|------- ------- ------- -------|
  D|-------------------------------|-------------------------------|
  A|7---7---7---7---7---7---7---7--|7---5-------------------5---/--|
  E|-------------------------------|----------------5--------------|
    Hey                                 babe            I       got



  G|------- ------- ------- -------|------- ------- ------- -------|
  D|-------------------------------|-------------------------------|
  A|7---7---7---7---7---7---7---7--|7---5-------5-----------5------|
  E|-------------------------------|----------------5--------------|
        something   think   ought know.
                I       you     to


  G|------- ------- ------- -------|------- ------- ------- -------|
  D|-------------------------------|-------------------------------|
  A|7---7---7---7---7---7---7---7--|7---5-------5-----------5------|
  E|-------------------------------|----------------5--------------|
        Hey                         babe                I   wanna 



  G|------- ------- ------- -------|------- ------- ------- -------|
  D|-------------------------------|-------------------------------|
  A|7---7---7---7---7---7---7---7--|7---5-------5-----------5------|
  E|-------------------------------|----------------5--------------|
    tell   that I       love    you 
        you                       so


    01:01
    I wanna hold you in my arms, yeah! 
    I'm never gonna let you go, 'Cause I like your charms.



    CHORUS
    01:12
  G|------- ------- ------- ----2--|----2-- ------- ------- -------|
  D|--------------------2---4------|------------4-------2----------|
  A|0---0---0---3---4--------------|------------------------4---0--|
  E|-------------------------------|-------------------------------|
            Communication                       breakdown



  G|------- ------- ------- ----2--|----0-- ------- ------- -------|
  D|--------------------2---4------|------------4-------2-------0--|
  A|----0-------3---4--------------|-------------------------------|
  E|-------------------------------|-------------------------------|
                It's        the same
                    always



  G|------- 4------ ------- -------|------- ------- ------- ----4--|
  D|----------------4---2---0------|------------2-------3---4------|
  A|2---------------------------2--|----2--------------------------|
  E|-------------------------------|-------------------------------|
                    Having  a   nervous         breakdown 



  G|----2-- ------- ------- -------|------- ------- ------- -------|
  D|------------4-------2---0------|-------------------------------|
  A|----------------------------2--|----2-------2---2-------2------|
  E|-------------------------------|-------------------------------|
                    Drive   insane!
                        me
                                                            X

  G|------- ------- ------- -------|------- ------- ------- -------|
  D|-------------------------------|-------------------------------|
  A|7--\---------------------------|-------------------------------|
  E|-------------------------------|-------------------------------|



    SOLO
    01:25
  G|------- ------- ------- -------|------- ------- ------- -------|
  D|-------------------------------|-------------------------------|
  A|7---7---7---7---7---7---7---7--|7---5--------------------------|
  E|-------------------------------|----------------5-------5------|




  G|------- ------- ------- -------|------- ------- ------- -------|
  D|-------------------------------|-------------------------------|
  A|7---7---7---7---7---7---7---7--|7---5-------x------------------|
  E|-------------------------------|----------------5-------5-/----| ....



    CHORUS
    01:44
  G|------- ------- ------- ----2--|----0-- ------- ------- -------|
  D|--------------------2----------|------------4-------2-------0--|
  A|0-------0---3---4--------------|-------------------------------|
  E|-------------------------------|-------------------------------|
            Communication                       breakdown



  G|------- ------- ------- -------|------- ------- ------- -------|
  D|-------------------------------|-------------------------------|
  A|----4-------2-------0----------|-------------------------------|
  E|----------------------------2--|----3-------4-------5---5---5-/|
                It's        the same
                    always


  G|------- ------- ------- ----11-|----11- ----9-- ----8-- -------|
  D|-------------------------------|------------------------9---7--|
  A|----------------9---7----------|-------------------------------|
  E|7---7---7---7------------------|-------------------------------|
                    Having  a   nervous         breakdown 



  G|------- ------- ------- -------|------- ------- ------- -------|
  D|-------------------------------|-------------------------------|
  A|----9-------7-------5-------6--|-------------------------------|
  E|-------------------------------|----7-----------7-------7------|
                    Drive   insane!
                        me

    CODA
    01:55
  G|------- ------- ------- -------|------- ------- ------- -------|
  D|-------------------------------|-------------------------------|
  A|7------------------------------|----5-------------------2-/----|
  E|-------------------------------|----------------5--------------|




  G|------- ------- ------- -------|------- ------- ------- -------|
  D|-------------------------------|-------------------------------|
  A|7---7---7---7---7---7---7---7--|7---5-------------------2-/----|
  E|-------------------------------|----------------5--------------|
                                                    Yeah!


    02:01
  G|------- ------- ------- -------|------- ------- ------- -------|
  D|-------------------------------|-------------------------------|
  A|7---7---7---7---7---7---7---7--|7---5-------------------2-/----|
  E|-------------------------------|----------------5--------------|
                                                       I want you to
                Communication                   breakdown


  G|------- ------- ------- -------|------- ------- ------- -------|
  D|-------------------------------|-------------------------------|
  A|7---7---7---7---7---7---7---7--|7---5-------------------2-/----|
  E|-------------------------------|----------------5--------------| 
    love  me  all night                                           I



  G|------- ------- ------- -------|------- ------- ------- -------|
  D|-------------------------------|-------------------------------|
  A|7---7---7---7---7---7---7---7--|7---5-------------------5------|
  E|-------------------------------|----------------5--------------|
    want  you  to  love  me  all night                          I
                Communication                   breakdown



  G|------- ------- ------- -------|------- ------- ------- -------|
  D|-------------------------------|-------------------------------|
  A|7---7---7---7---7---7---7---7--|7---5-------5-----------5------|
  E|-------------------------------|----------------5--------------|
    want                                                        I



  G|------- ------- ------- -------|------- ------- ------- -------|
  D|-------------------------------|-------------------------------|
  A|7---7---7---7---7---7---7---7--|7---5-------5-----------2-/----|
  E|-------------------------------|----------------5--------------| ....
    want                                                          I
                Communication                   breakdown






        B  Bend
        R  Release
        /  slide up
        \  slide down
        H  hammer-on
        P  pull-off
        ~  vibrato
        +  harmonic
        x  Mute note
        . - play note like a dot in standard notation
        ^ - ties two notes together
        (.  Pause
            
Submit corrections

comments powered by Disqus
↑ Back to top | Led Zeppelin Bass for Communication Breakdown. Lyrics for acoustic guitar and electric guitar. Tablatures and chords are parodies/interpretations of the original songs. You may use it for private study, scholarship, research or language learning purposes only