» » »

Led Zeppelin, Bring It On Home Tabs (ver.4)

Artists:  A B C D E F G H I J K L M N O P Q R S T U V W X Y Z # 

Bring It On Home Tabs (ver.4)

Led Zeppelin Tabs
 Rating:
4/5 (4 votes)
Bring It On Home lessons Tabs too difficult? Try these video lessons and learn fast
1
                
Gtr I (E A D G B e) - 'Jimmy Page - Dist. Electric'
	"Guitar I" isn't really needed. It sounds good without it. But
	the real song uses three guitars. 


Gtr II (E A D G B e) - 'Jimmy Page - Dist. Electric'

Gtr III  (E A D G B e) - 'Jimmy Page - Lead Dist. Electric'

Key
h  = hammer-on
p  = pull-off
s  = slide
b  = bend
pb = release bend
PM = Palm mute
x  = mute

Intro
|Gtr II               |- start Harmonica Solo
||--------------------|---------------------|---------------------|
||--------------------|---------------------|---------------------|
||--------------------|---------------------|---------------------|
||--------------------|---------------------|---------------------|
||-2---4---2-------2--|--2---4---2-------2--|--2---4---2-------2--|
||-0-0-0-0-0-0-3h4-0--|--0-0-0-0-0-0-3h4-0--|--0-0-0-0-0-0-3h4-0--|
  PM - - - - - - - - - - - - - - - - - - - - - - - - - - - - - |

|---------------------|---------------------|---------------------|
|---------------------|---------------------|---------------------|
|---------------------|---------------------|---------------------|
|---------------------|---------------------|---------------------|
|--2---4---2-------2--|--2---4---2-------2--|--2---4---2-------2--|
|--0-0-0-0-0-0-3h4-0--|--0-0-0-0-0-0-3h4-0--|--0-0-0-0-0-0-3h4-0--|
 PM - - - - - - - - - - - - - - - - - - - - - - - - - - - - - - |

|---------------------|---------------------|---------------------|
|---------------------|---------------------|---------------------|
|---------------------|---------------------|---------------------|
|---------------------|---------------------|---------------------|
|--2---4---2-------2--|--2---4---2-------2--|--2---4---2-------2--|
|--0-0-0-0-0-0-3h4-0--|--0-0-0-0-0-0-3h4-0--|--0-0-0-0-0-0-3h4-0--|
 PM - - - - - - - - - - - - - - - - - - - - - - - - - - - - - - |

|---------------------|---------------------|---------------------|
|---------------------|---------------------|---------------------|
|---------------------|---------------------|---------------------|
|---------------------|---------------------|---------------------|
|--2---4---2-------2--|--2---4---2-------2--|--2---4---2-------2--|
|--0-0-0-0-0-0-3h4-0--|--0-0-0-0-0-0-3h4-0--|--0-0-0-0-0-0-3h4-0--|
 PM - - - - - - - - - - - - - - - - - - - - - - - - - - - - - - |

                      |- end Harmonica Solo
|---------------------|---------------------|
|---------------------|---------------------|
|---------------------|---------------------|
|---------------------|---------------------|
|--2---4---2-------2--|--2---4---2-------2--|
|--0-0-0-0-0-0-3h4-0--|--0-0-0-0-0-0-3h4-0--|
 PM - - - - - - - - - - - - - - - - - - - |

Intro Verse
|---------------------|---------------------|---------------------|---------------------|
|---------------------|---------------------|---------------------|---------------------|
|---------------------|---------------------|---------------------|---------------------|
|---------------------|---------------------|---------------------|---------------------|
|--2---4---2-------2--|--2---4---2-------2--|--2---4---2-------2--|--2---4---2-------2--|
|--0-0-0-0-0-0-3h4-0--|--0-0-0-0-0-0-3h4-0--|--0-0-0-0-0-0-3h4-0--|--0-0-0-0-0-0-3h4-0--|
 PM - - - - - - - - - - - - - - - - - - - - - - - - - - - - - - - - - - - - - - - - - |
     Baby,~~~~~~~~~~~~~~~~~~~~~~~~~~~~~~~>

|---------------------|---------------------|---------------------|---------------------|
|---------------------|---------------------|---------------------|---------------------|
|---------------------|---------------------|---------------------|---------------------|
|---------------------|---------------------|---------------------|---------------------|
|--2---4---2-------2--|--2---4---2-------2--|--2---4---2-------2--|--2---4---2-------2--|
|--0-0-0-0-0-0-3h4-0--|--0-0-0-0-0-0-3h4-0--|--0-0-0-0-0-0-3h4-0--|--0-0-0-0-0-0-3h4-0--|
 PM - - - - - - - - - - - - - - - - - - - - - - - - - - - - - - - - - - - - - - - - - |
     Baby.~~~~~~~~~~~~~~~~~~~~~~~~~~~~~~~>

|---------------------|---------------------|---------------------|---------------------|
|---------------------|---------------------|---------------------|---------------------|
|---------------------|---------------------|---------------------|---------------------|
|---------------------|---------------------|---------------------|---------------------|
|--2---4---2-------2--|--2---4---2-------2--|--2---4---2-------2--|--2---4---2-------2--|
|--0-0-0-0-0-0-3h4-0--|--0-0-0-0-0-0-3h4-0--|--0-0-0-0-0-0-3h4-0--|--0-0-0-0-0-0-3h4-0--|
 PM - - - - - - - - - - - - - - - - - - - - - - - - - - - - - - - - - - - - - - - - - |
    I'm gonna bring it on home to you.~~~>

|---------------------|---------------------|---------------------|---------------------|
|---------------------|---------------------|---------------------|---------------------|
|---------------------|---------------------|---------------------|---------------------|
|---------------------|---------------------|---------------------|---------------------|
|--2---4---2-------2--|--2---4---2-------2--|--2---4---2-------2--|--2---4---2-------2--|
|--0-0-0-0-0-0-3h4-0--|--0-0-0-0-0-0-3h4-0--|--0-0-0-0-0-0-3h4-0--|--0-0-0-0-0-0-3h4-0--|
 PM - - - - - - - - - - - - - - - - - - - - - - - - - - - - - - - - - - - - - - - - - |
    I've got my ticket, I've got that load.

|---------------------|---------------------|---------------------|---------------------|
|---------------------|---------------------|---------------------|---------------------|
|---------------------|---------------------|---------------------|---------------------|
|---------------------|---------------------|---------------------|---------------------|
|--2---4---2-------2--|--2---4---2-------2--|--2---4---2-------2--|--2---4---2-------2--|
|--0-0-0-0-0-0-3h4-0--|--0-0-0-0-0-0-3h4-0--|--0-0-0-0-0-0-3h4-0--|--0-0-0-0-0-0-3h4-0--|
 PM - - - - - - - - - - - - - - - - - - - - - - - - - - - - - - - - - - - - - - - - - |
    Got up, gone higher, all aboard.~~~~~>    

|---------------------|---------------------|---------------------|---------------------|
|---------------------|---------------------|---------------------|---------------------|
|---------------------|---------------------|---------------------|---------------------|
|--2---4---2-------2--|--2---4---2-------2--|--2---4---2-------2--|--2---4---2-------2--|
|--0-0-0-0-0-0-3h4-0--|--0-0-0-0-0-0-3h4-0--|--0-0-0-0-0-0-3h4-0--|--0-0-0-0-0-0-3h4-0--|
|---------------------|---------------------|---------------------|---------------------|
 PM - - - - - - - - - - - - - - - - - - - - - - - - - - - - - - - - - - - - - - - - - |
    I'm gonna take my seat, right way back.                                  Ooh yeah.

|---------------------|---------------------|---------------------|---------------------|
|---------------------|---------------------|---------------------|---------------------|
|---------------------|---------------------|---------------------|---------------------|
|---------------------|---------------------|---------------------|---------------------|
|--2---4---2-------2--|--2---4---2-------2--|--2---4---2-------2--|--2---4---2-------2--|
|--0-0-0-0-0-0-3h4-0--|--0-0-0-0-0-0-3h4-0--|--0-0-0-0-0-0-3h4-0--|--0-0-0-0-0-0-3h4-0--|
 PM - - - - - - - - - - - - - - - - - - - - - - - - - - - - - - - - - - - - - - - - - |
   Watch this train roll down the track.

|---------------------|---------------------|---------------------|---------------------|
|---------------------|---------------------|---------------------|---------------------|
|---------------------|---------------------|---------------------|---------------------|
|--4---6---4---6--4---|--2---4---2---4--2---|---------------------|---------------------|
|--2-2-2-2-2-2-2--2---|--0-0-0-0-0-0-0--0---|--2---4---2-------2--|--2---4---2-------2--|
|---------------------|---------------------|--0-0-0-0-0-0-3h4-0--|--0-0-0-0-0-0-3h4-0--|
 PM - - - - - - - - - - - - - - - - - - - - - - - - - - - - - - - - - - - - - - - - - |
   I'm gonna bring it on home, bring it on home to you. Watch out, watch out, man move.

|---------------------|---------------------|---------------------|---------------------|
|---------------------|---------------------|---------------------|---------------------|
|---------------------|---------------------|---------------------|---------------------|
|--4---6---4---6--4---|--2---4---2---4--2---|-0-------------------|---------------------|
|--2-2-2-2-2-2-2--2---|--0-0-0-0-0-0-0--0---|-0-2---(2)----(2)----|-(2)-----------------|
|---------------------|---------------------|---0---(0)----(0)----|-(0)-----------------|
 PM - - - - - - - - - - - - - - - - - - - |

First Verse
|Gtr II          |Gtr I & Gtr II
|----------------------------------------|----------------------------------------|
|----------------------------------------|----------------------------------------|
|----------------2b3---3pb2p1p---2p1-----|----------------2b3---3pb2p1p--2---(2)--|
|-------0h2---------------------------2--|-------0h2------------------------------|
|--0h2-----------------------------------|--0h2-----------------------------------|
|-----------0----------------------------|------------0---------------------------|
|Gtr III
|----------------------------------------|----------------------------------------|
|----------------------------------------|----------------------------------------|
|----------------------------------------|----------------------------------------|
|----------------------------------------|----------------------------------------|
|----------------------------------------|----------------------------------------|
|----------------------------------------|----------------------------------------|


|Gtr I & Gtr II
|----------------------------------------|----------------------------------------|
|----------------------------------------|----------------------------------------|
|----------------2b3---3pb2p1p---2p1-----|----------------2b3---3pb2p1p--2---(2)--|
|-------0h2---------------------------2--|-------0h2------------------------------|
|--0h2-----------------------------------|--0h2-----------------------------------|
|-----------0----------------------------|------------0---------------------------|
|Gtr III
|----------------------------------------|----------------------------------------|
|----------------------------------------|----------------------------------------|
|----------------------------------------|----------------------------------------|
|----------------------------------------|----------------------------------------|
|----------------------------------------|----------------------------------------|
|----------------------------------------|----------------------------------------|


|Gtr I & Gtr II
|----------------------------------------|----------------------------------------|
|----------------------------------------|----------------------------------------|
|----------------2b3---3pb2p1p---2p1-----|----------------2b3---3pb2p1p--2---(2)--|
|-------0h2---------------------------2--|-------0h2------------------------------|
|--0h2-----------------------------------|--0h2-----------------------------------|
|-----------0----------------------------|------------0---------------------------|
|Gtr III
|----------------------------------------|----------------------------------------|
|------12h14----14b15-15pb14p13-14p13----|------12h14----14b15-15pb14p13-14--(14)-|
|-12h13-----13------------------------13-|-12h13-----13---------------------------|
|----------------------------------------|----------------------------------------|
|----------------------------------------|----------------------------------------|
|----------------------------------------|----------------------------------------|


|Gtr I & Gtr II
|----------------------------------------|----------------------------------------|
|----------------------------------------|----------------------------------------|
|----------------2b3---3pb2p1p---2p1-----|----------------2b3---3pb2p1p--2---(2)--|
|-------0h2---------------------------2--|-------0h2------------------------------|
|--0h2-----------------------------------|--0h2-----------------------------------|
|-----------0----------------------------|------------0---------------------------|
|Gtr III
|----------------------------------------|----------------------------------------|
|------12h14----14b15-15pb14p13-14p13----|------12h14----14b15-15pb14p13-14--(14)-|
|-12h13-----13------------------------13-|-12h13-----13---------------------------|
|----------------------------------------|----------------------------------------|
|----------------------------------------|----------------------------------------|
|----------------------------------------|----------------------------------------|


|Gtr I & II
|----------------------------------------|----------------------------------------|
|---3---x-x---2---x-x---0-----x-x--------|---3---x-x---2---x-x---0-----x-x--------|
|---4---x-x---2---x-x---0h1---x-x--------|---4---x-x---2---x-x---0h1---x-x--------|
|---5---x-x---2---x-x---0-----x-x--------|---5---x-x---2---x-x---0-----x-x--------|
|-------x-x-------x-x---------x-x--------|-------x-x-------x-x---------x-x--------|
|-----------------------------------3-5--|-----------------------------------3-0--|
|Gtr III
|----------------------------------------|----------------------------------------|
|----------------------------------------|----------------------------------------|
|----------------------------------------|----------------------------------------|
|----------------------------------------|----------------------------------------|
|----------------------------------------|----------------------------------------|
|-----------------------------------3-5--|-----------------------------------3-0--| x7


Second Verse
|Gtr I & Gtr II
|----------------------------------------|----------------------------------------|
|----------------------------------------|----------------------------------------|
|----------------2b3---3pb2p1p---2p1-----|----------------2b3---3pb2p1p--2---(2)--|
|-------0h2---------------------------2--|-------0h2------------------------------|
|--0h2-----------------------------------|--0h2-----------------------------------|
|-----------0----------------------------|------------0---------------------------|
|Gtr III
|----------------------------------------|----------------------------------------|
|----------------------------------------|----------------------------------------|
|----------------------------------------|----------------------------------------|
|----------------------------------------|----------------------------------------|
|----------------------------------------|----------------------------------------|
|----------------------------------------|----------------------------------------|


|Gtr I & Gtr II
|----------------------------------------|----------------------------------------|
|----------------------------------------|----------------------------------------|
|----------------2b3---3pb2p1p---2p1-----|----------------2b3---3pb2p1p--2---(2)--|
|-------0h2---------------------------2--|-------0h2------------------------------|
|--0h2-----------------------------------|--0h2-----------------------------------|
|-----------0----------------------------|------------0---------------------------|
|Gtr III
|----------------------------------------|----------------------------------------|
|----------------------------------------|----------------------------------------|
|----------------------------------------|----------------------------------------|
|----------------------------------------|----------------------------------------|
|----------------------------------------|----------------------------------------|
|----------------------------------------|----------------------------------------|


|Gtr I & Gtr II
|----------------------------------------|----------------------------------------|
|----------------------------------------|----------------------------------------|
|----------------2b3---3pb2p1p---2p1-----|----------------2b3---3pb2p1p--2---(2)--|
|-------0h2---------------------------2--|-------0h2------------------------------|
|--0h2-----------------------------------|--0h2-----------------------------------|
|-----------0----------------------------|------------0---------------------------|
|Gtr III
|----------------------------------------|----------------------------------------|
|------12h14----14b15-15pb14p13-14p13----|------12h14----14b15-15pb14p13-14--(14)-|
|-12h13-----13------------------------13-|-12h13-----13---------------------------|
|----------------------------------------|----------------------------------------|
|----------------------------------------|----------------------------------------|
|----------------------------------------|----------------------------------------|


|Gtr I & Gtr II
|----------------------------------------|----------------------------------------|
|----------------------------------------|----------------------------------------|
|----------------2b3---3pb2p1p---2p1-----|----------------2b3---3pb2p1p--2---(2)--|
|-------0h2---------------------------2--|-------0h2------------------------------|
|--0h2-----------------------------------|--0h2-----------------------------------|
|-----------0----------------------------|------------0---------------------------|
|Gtr III
|----------------------------------------|----------------------------------------|
|------12h14----14b15-15pb14p13-14p13----|------12h14----14b15-15pb14p13-14--(14)-|
|-12h13-----13------------------------13-|-12h13-----13---------------------------|
|----------------------------------------|----------------------------------------|
|----------------------------------------|----------------------------------------|
|----------------------------------------|----------------------------------------|


|Gtr I & II
|----------------------------------------|----------------------------------------|
|---3---x-x---2---x-x---0-----x-x--------|---3---x-x---2---x-x---0-----x-x--------|
|---4---x-x---2---x-x---0h1---x-x--------|---4---x-x---2---x-x---0h1---x-x--------|
|---5---x-x---2---x-x---0-----x-x--------|---5---x-x---2---x-x---0-----x-x--------|
|-------x-x-------x-x---------x-x--------|-------x-x-------x-x---------x-x--------|
|-----------------------------------3-5--|-----------------------------------3-0--|
|Gtr III
|----------------------------------------|----------------------------------------|
|----------------------------------------|----------------------------------------|
|----------------------------------------|----------------------------------------|
|----------------------------------------|----------------------------------------|
|----------------------------------------|----------------------------------------|
|-----------------------------------3-5--|-----------------------------------3-0--| x7


Third Verse 


Same as second verse.


End Verse
|Gtr I & Gtr II
|----------------------------------------|----------------------------------------|
|----------------------------------------|----------------------------------------|
|----------------2b3---3pb2p1p---2p1-----|----------------2b3---3pb2p1p--2---(2)--|
|-------0h2---------------------------2--|-------0h2------------------------------|
|--0h2-----------------------------------|--0h2-----------------------------------|
|-----------0----------------------------|------------0---------------------------|
|Gtr III
|----------------------------------------|----------------------------------------|
|----------------------------------------|----------------------------------------|
|----------------------------------------|----------------------------------------|
|----------------------------------------|----------------------------------------|
|----------------------------------------|----------------------------------------|
|----------------------------------------|----------------------------------------|


|Gtr I & Gtr II
|----------------------------------------|----------------------------------------|
|----------------------------------------|----------------------------------------|
|----------------2b3---3pb2p1p---2p1-----|----------------2b3---3pb2p1p--2---(2)--|
|-------0h2---------------------------2--|-------0h2------------------------------|
|--0h2-----------------------------------|--0h2-----------------------------------|
|-----------0----------------------------|------------0---------------------------|
|Gtr III
|----------------------------------------|----------------------------------------|
|----------------------------------------|----------------------------------------|
|----------------------------------------|----------------------------------------|
|----------------------------------------|----------------------------------------|
|----------------------------------------|----------------------------------------|
|----------------------------------------|----------------------------------------|


|Gtr I & Gtr II
|----------------------------------------|----------------------------------------|
|----------------------------------------|----------------------------------------|
|----------------2b3---3pb2p1p---2p1-----|----------------2b3---3pb2p1p--2---(2)--|
|-------0h2---------------------------2--|-------0h2------------------------------|
|--0h2-----------------------------------|--0h2-----------------------------------|
|-----------0----------------------------|------------0---------------------------|
|Gtr III
|----------------------------------------|----------------------------------------|
|------12h14----14b15-15pb14p13-14p13----|------12h14----14b15-15pb14p13-14--(14)-|
|-12h13-----13------------------------13-|-12h13-----13---------------------------|
|----------------------------------------|----------------------------------------|
|----------------------------------------|----------------------------------------|
|----------------------------------------|----------------------------------------|


|Gtr I & Gtr II
|----------------------------------------|----------------------------------------|
|----------------------------------------|----------------------------------------|
|----------------2b3---3pb2p1p---2p1-----|----------------2b3---3pb2p1p-----------|
|-------0h2---------------------------2--|-------0h2---------------------2---(2)--|
|--0h2-----------------------------------|--0h2--------------------------0---(0)--|
|-----------0----------------------------|------------0---------------------------|
|Gtr III
|----------------------------------------|----------------------------------------|
|------12h14----14b15-15pb14p13-14p13----|------12h14----14b15-15pb14p13----------|
|-12h13-----13------------------------13-|-12h13-----13------------------13--(13)-|
|----------------------------------------|----------------------------------------|
|----------------------------------------|----------------------------------------|
|----------------------------------------|----------------------------------------|


|---------------------|---------------------|---------------------|---------------------|
|---------------------|---------------------|---------------------|---------------------|
|---------------------|---------------------|---------------------|---------------------|
|--4---6---4---6--4---|--2---4---2---4--2---|---------------------|---------------------|
|--2-2-2-2-2-2-2--2---|--0-0-0-0-0-0-0--0---|--2---4---2-------2--|--2---4---2-------2--|
|---------------------|---------------------|--0-0-0-0-0-0-3h4-0--|--0-0-0-0-0-0-3h4-0--|
 PM - - - - - - - - - - - - - - - - - - - - - - - - - - - - - - - - - - - - - - - - - |
    Bring it on home,   Bring it on home to you

|---------------------|---------------------|----------12-------12--------12------------|
|---------------------|---------------------|--------9-----9-10-----10-11-----11-12/----|
|---------------------|---------------------|-------------------------------------------|
|--4---6---4---6--4---|--2---4---2---4--2---|--------9-----9-10-----10-11-----11-12/----|
|--2-2-2-2-2-2-2--2---|--0-0-0-0-0-0-0--0---|-------------------------------------------|
|---------------------|---------------------|-0--(0)------------------------------------|
 PM - - - - - - - - - - - - - - - - - - - |


|---------------------|
|----8---(8)----(8)---|
|----7---(7)----(7)---|
|----6---(6)----(6)---|
|----7---(7)----(7)---|
|-0-------------------|
            
Submit corrections

comments powered by Disqus
↑ Back to top | Led Zeppelin Tabs for Bring It On Home. Lyrics for acoustic guitar and electric guitar. 1 Tablatures and chords are parodies/interpretations of the original songs. You may use it for private study, scholarship, research or language learning purposes only