» » »

Led Zeppelin, Bring It On Home Tabs (ver.3)

Artists:  A B C D E F G H I J K L M N O P Q R S T U V W X Y Z # 

Bring It On Home Tabs (ver.3)

Led Zeppelin Tabs
 Rating:
4/5 (4 votes)
Bring It On Home lessons Tabs too difficult? Try these video lessons and learn fast
                e:-----------------------------|
B:-----------------------------|
G:-----------------------------|
D:-----------------------------|
A:--2--2--4--4--2---------2----|
E:--0--0--0--0--0--0--3h4------|
 PM ------------------------|

[Riff 2]

e:--------------------------------|
B:--------------------------------|
G:--------------------------------|
D:--2--2--4--4--2---------2-------|
A:--0--0--0--0--0--0--3h4---------|
E:--------------------------------|
 PM ------------------------|

[Riff 3]                          [Riff 3a]

e:----------------------------|-------------------------------------|
B:----------------------------|-------------------------------------|
G:----------------------------|-------------------------------------|
D:--4--4--6--6--4--4--6--6----|---2-2--4-4--2-2--4------------------|
A:--2--2--2--2--2--2--2--2----|---0-0--0-0--0-0--0---2--------------|
E:----------------------------|----------------------0--------------|
 PM -----------------------|   PM ---------------------|

[Riff 4] - with distortion

e:----------------------------------|--------------------------|
B:----------------------------------|--------------------------|
G:-------------2b4r2p1---2p1--------|-------------2b4r2p1--2~--|
D:-----0h2--------------------2~----|------0h2-----------------|
A:-0h2------------------------------|--0h2---------------------|
E:---------0------------------------|----------0---------------|

[Riff 5] - with distortion

e:---------------------------------|---------------------------------|
B:---------------------------------|---------------------------------|
G:---------------------------------|---------------------------------|
D:---------------7b9r7p6--7p6------|--------------7b9r7p6--7~--------|
A:------5h7---------------------7~-|-------5h7-----------------------|
E:--5h7------0---------------------|---5h7-----0---------------------|

[Riff 6] - with distortion   ________________________________
                             |1.           |2.
e:---------------------------|-------------|----------------|
B:---3--x-x--2--x-x--0h1--x--|-------------|----------------|
G:o--4--x-x--2--x-x----------|------------o|----------------|
D:o--------------------------|------------o|----------------|
A:---------------------------|-------------|----------------|
E:---------------------------|--3--3b--5---|--3--3b---0.----|

[Riff 7]

e:------------------------------|
B:------------------------------|
G:------------------------------|
D:------------------------------|
A:--2--2--4--4--2---------------|
E:--0--0--0--0--0---4.-5.-------|
 PM ----------------------|

[Riff 8]

e:----------------------------------------------------------|
B:-------12--14-----14b15r14p12---14p12---------------------|
G:-12-13--------13----------------------13------------------|
D:----------------------------------------------------------|
A:----------------------------------------------------------|
E:----------------------------------------------------------|

e:---------------------------------------|
B:-------12-14----14b15r14p12---14~------|
G:-12-13-------13------------------------|
D:---------------------------------------|
A:---------------------------------------|
E:---------------------------------------|

[Riff 9]

e:-------------------------------------------------------------------|
B:-------------------------------------------------------------------|
G:------------------14b16r14p13---14p13------------------------------|
D:--------12-14-------------------------14---------------------------|
A:--12-14------------------------------------------------------------|
E:--------------12---------------------------------------------------|

[Fill 1] - played with octave/fuzz

e:---12----12-12--12-------------------------------------------------|
B:-------------------------------------------------------------------|
G:----9-----9--9---9-------------------------------------------------|
D:-------------------------------------------------------------------|
A:-------------------------------------------------------------------|
E:-------------------------------------------------------------------|
            
Submit corrections

comments powered by Disqus
↑ Back to top | Led Zeppelin Tabs for Bring It On Home. Lyrics for acoustic guitar and electric guitar. Tablatures and chords are parodies/interpretations of the original songs. You may use it for private study, scholarship, research or language learning purposes only