» » »

Lazlo Bane, Superman Tabs (ver.3)

Artists:  A B C D E F G H I J K L M N O P Q R S T U V W X Y Z # 

Superman Tabs (ver.3)

Lazlo Bane Tabs
 Rating:
4/5 (4 votes)
Superman lessons Tabs too difficult? Try these video lessons and learn fast
1
                Hey people this is my FIRST tab so be nice =)
I did this by ear so it won't be 100% correct..
Yes I am a srcubs fan :P

You will need a capo on the 4th fret (Tab is set for capo to replace the nut)
You can strum to however you want.. I Strum D D D U U D U


Guitar 1 Intro: This is the Banjo part
e|--------------------------------2p-0-------|
B|-3---3----3----2----3----3-----------3/5---|
G|--2----2----2----2----2----2---------------| x 2
D|---0-----0----0----0----0----0-------------|
A|-------------------------------------------|
E|-------------------------------------------|

Guitar 2 Intro: Play with Banjo/1st guitar
   D         D         D    G    D
e|-2----2----2----2----2----3----3----X---|
B|-3----0----3----0----3----3----2----3---|
G|-2----0----2----0----2----0----3----2---|  
D|------X---------2---------0---------0---|
A|------2---------X---------2---------2---|
E|------X-------------------3---------x---|
                              

Both Guitars:           
   D         D    EM  AM    G    A    EM    D    
e|-2----2----2----0----0----0----0----0-----2----2----|
B|-3----0----3----0----1----0----2----0-----3----0----|
G|-2----0----2----0----2----0----2----0-----2----0----|  
D|------X---------2----2----0----2----2----------x----|
A|------2---------2----0----2----0----2----------2----|
E|------X---------0----0----3----x----0----------x----|
  

Guitar 1 SOLO:  
e|----10--9--10--5--5--7--5---------------------------|  
B|----------------------------7--5--------------------|  
G|-7--------------------------------7-----------------|  x2
D|----------------------------------------------------|  
A|----------------------------------------------------|  
E|----------------------------------------------------|  

Guitar 2:
e|-------------------------------2p-0-----------|
B|--3---3----3----2----3----3---------3/5-------|
G|---2----2----2----2----2---2------------------|
D|----0-----0----0----0----0---0----------------|
A|----------------------------------------------|
E|----------------------------------------------|



Guitar 1:
   D    G    D   EM        --Banjo--       
e|-2----3----2----0--------------------------|
B|-3----3----3----0-------3-/-5--3-----------| 
G|-2----0----2----0----------------6--7------| x2
D|------0---------2--------------------------|  
A|------2---------2--------------------------|  
E|------3---------0--------------------------|  
Guitar 2:
e|---------------------------------------------------------2p-0--------|
B|------------------------3---3----3----2----3----3-------------3/5----|
G|-------------------------2----2----2----2----2----2---X2-------------|
D|--------------------------0-----0----0----0----0----0----------------|
A|---------------------------------------------------------------------|
E|---------------------------------------------------------------------|

Both Guitars:           
   EM  AM    G    A    EM    D    
e|-0----0----0----0----0-----2----2----|
B|-0----1----0----2----0-----3----0----|
G|-0----2----0----2----0-----2----0----|  
D|-2----2----0----2----2----------x----|
A|-2----0----2----0----2----------2----|
E|-0----0----3----x----0----------x----|

Guitar 1 SOLO:  
e|----10--9--10--5--5--7--5---------------------------|  
B|----------------------------7--5--------------------|  
G|-7--------------------------------7-----------------|  x2
D|----------------------------------------------------|  
A|----------------------------------------------------|  
E|----------------------------------------------------|  

Guitar 2:
e|-------------------------------2p-0-----------|
B|--3---3----3----2----3----3---------3/5-------|
G|---2----2----2----2----2---2------------------|
D|----0-----0----0----0----0---0----------------|
A|----------------------------------------------|
E|----------------------------------------------|

---Harmonica part---
Play 

e|----------------------------------------------|
B|--3---3----3----2----3----3-------------------|
G|---2----2----2----2----2---2------------------|
D|----0-----0----0----0----0---0----------------|
A|----------------------------------------------|
E|----------------------------------------------|

Second Solo --- Gave up after this.. you gotta work it out =P
e|----------------------------------------------|
B|----------------------------------------------|
G|--9--11--9--7---9--11--9--7-/-9--16--9--------|
D|--7--9---7--5-/-7---9--7--5-/-7--14--7--------|
A|----------------------------------------------|
E|----------------------------------------------|

Guitar 1: 1 Long stroke
   D    G    D   EM        --Banjo--       
e|-2----3----2----0--------------------------|
B|-3----3----3----0-------3-/-5--3-----------| 
G|-2----0----2----0----------------6--7------| x2
D|------0---------2--------------------------|  
A|------2---------2--------------------------|  
E|------3---------0--------------------------|  

Guitar 2: Play after D,G,D,EM
e|------------------------------------------------|
B|--3---3----3----2----3----3-----------2p-0------|
G|---2----2----2----2----2---2----x3---------3/5--|
D|----0-----0----0----0----0---0------------------|
A|------------------------------------------------|
E|------------------------------------------------|

Both Guitars:
   D    G    D   EM              
e|-2----3----2----0-------|
B|-3----3----3----0-------| 
G|-2----0----2----0-------| 
D|------0---------2-------|  
A|------2---------2-------|  
E|------3---------0-------|  

Guitar 1 SOLO:  
e|----10--9--10--5--5--7--5---------------------------|  
B|----------------------------7--5--------------------|  
G|-7--------------------------------7-----------------|  
D|----------------------------------------------------|  
A|----------------------------------------------------|  
E|----------------------------------------------------| 

Guitar 2:
e|-------------------------------2p-0-----------|
B|--3---3----3----2----3----3---------3/5-------|
G|---2----2----2----2----2---2------------------|
D|----0-----0----0----0----0---0----------------|
A|----------------------------------------------|
E|----------------------------------------------|

And finish with a slow D stroke =)

Hope you enjoyed this tab!

-- Here are the lyrics --
Out the door just in time
Head down the 405
Gotta meet the new boss by eight am

The phone rings in the car
The wife is working hard
She's running late tonight again

Well, I know what I've been told
You've got to work to feed the soul
But I can't do this all on my own
No, I know
I'm no Superman
I'm no Superman

And you've got your love online
And you think you're doing fine
But you're just pluged into the wall

And that deck of Tarot cards
Won't get you very far
There ain't no hand to break your fall

Well, I know what I've been told
You've got to know just when to fold
But I can't do this all on my own
No, I know
I'm no Superman
I'm no Superman
(that's right)

You've crossed the finish line
Won the race but lost your mind
Was it worth it, after all

I need you here with me
Cause love is all we need
Just take a hold of the hand that breaks the fall

Well I know what I've been told
You've to break free to break the mold
But I can't do this all on my own
No, I can't do this all on my own
I know, that I'm no
Superman
I'm no Superman
I'm no Superman

Someday we'll be together
I'm no Superman
Someday
Someday we'll be together
Someday
I'm no Superman 


Enjoy
            
Submit corrections

comments powered by Disqus
↑ Back to top | Lazlo Bane Tabs for Superman. Lyrics for acoustic guitar and electric guitar. 1 Tablatures and chords are parodies/interpretations of the original songs. You may use it for private study, scholarship, research or language learning purposes only