» » »

I'm No Superman Bass tabs (ver.1)

Artists:  A B C D E F G H I J K L M N O P Q R S T U V W X Y Z # 

I'm No Superman Bass tabs (ver.1)

Lazlo Bane
Rating:
0/5 (0 votes)

Hard to play? Try these video lessons and learn fast.
                -------------------------------------------------------------------------------
			     Im no superman - Lazlo Bane
-------------------------------------------------------------------------------


Tuning: standard

Structure:
-Intro
-Verse
-Chorus
-Verse
-Chorus
-Bridge
-Verse
-Chorus
-Outro


Verse:

G|---------------------------------------------------------------------------|
D|------4---------------------------4----------------------------------------|
A|----4---4----0-1-2-22-2-2-4-----4---4----0-1-2-22-2-2-4--------------------|
E|-2--------2------------------2--------2------------------------------------|

Chorus:

G|---------------------------------------------------------------------------|
D|---------------------------------------------------------------------------|
A|-----44-----44---6--6-44-4-3--3-------2--22-4\-----------------------------|
E|-4--4---4--4---4----------------44-4---------------------------------------|

Bridge:

G|---------------------------------------------------------------------------|
D|---------------------------------------------------------------------------|
A|-2--------------2-4--44-4--4--------------6--6-44-4-3--3-------------------|
E|---2-4--44-4--4--------------2-4--44-4--4----------------44-4--------------|

G|---------------------------------------------------------------------------|
D|---------------------------------------------------------------------------|
A|-2--22-2--2-4--44-4-4/9----------------------------------------------------|
E|---------------------------------------------------------------------------|

Outro:

G|---------------------------------------------------------------------------|
D|---------------------------------------------------------------------------|
A|-6-4-3-1-------------------------------------------------------------------|
E|---------4-3-1-------------------------------------------------------------|
   Continue verse riff until finish. End on C#.

   Thats it. Any comments or corrections Email me. 


| /  slide up
| \  slide down
| h  hammer-on
| p  pull-off
| ~  vibrato
| +  harmonic
| x  Mute note
===============================================================================
            
Hard to play? Try these video lessons and learn fast. | Correct




comments powered by Disqus
↑ Back to top | Tablatures and chords are parodies/interpretations of the original songs. You may use it for private study, scholarship, research or language learning purposes only