» » »

Lazlo Bane, Superman Bass tabs (ver.1)

Artists:  A B C D E F G H I J K L M N O P Q R S T U V W X Y Z # 

Superman Bass tabs (ver.1)

Lazlo Bane Tabs
 Rating:
4.4/5 (7 votes)
Superman lessons Tabs too difficult? Try these video lessons and learn fast
1
                haha i love scrubs and i noticed no one has done the bass to this song so ya

Intro:
|-----|
|-----|
|-----|
|-0-1-|

Verse:
|-----------------------------|
|-----------4-----------------|
|----------4-4--1-2--1h2-2--4-|
|---0h1-2-----2---------------|


|------------------------|
|------4-----------------|
|-----4-4--1-2--1h2-2--4-|
|--2-----2---------------|

Chorus:
|----------------------------------------------------|
|-------------------------------------1--------------|
|----1h4---4--x--x------1h4--4--x--x-----1h4--4--x--x|
|-4-----------------4--------------------------------|

|--------------------------------------------------------------------------|
|----------------------------4--------------------------4------------------|
|-3----------x--2--1h4-----4---4---1--2--1h2--2-4-----4---4---1-2--1h2--2-4|
|----2h4--4-------------2--------2----------------2---------2--------------|

Verse:
|------------------------|
|------4-----------------|
|-----4-4--1-2--1h2-2--4-|
|--2-----2---------------|

|------------------------|
|------4-----------------|
|-----4-4--1-2--1h2-2--4-|
|--2-----2---------------|

|------------------------|
|------4-----------------|
|-----4-4--1-2--1h2-2--4-|
|--2-----2---------------|

|------------------------|
|------4-----------------|
|-----4-4--1-2--1h2-2--4-|
|--2-----2---------------|

Chorus:
|----------------------------------------------------|
|-------------------------------------1--------------|
|----1h4---4--x--x------1h4--4--x--x-----1h4--4--x--x|
|-4-----------------4--------------------------------|

|--------------------------------------------------------------------------|
|----------------------------4--------------------------4------------------|
|-3----------x--2--1h4-----4---4---1--2--1h2--2-4-----4---4---1-2--1h2--2-4|
|----2h4--4-------------2--------2----------------2---------2--------------|

Solobackground:
|--------------------------------------------|
|----------1---------------------1-----------|
|------------4-1h4-4-------------------------|
|-4--2h4-4-----------1h2-4-2h4-4-------------|

|----------------------------------------|
|----------------------------------------|
|--2-1h2---2--x--x--4---1h4--4-----------|
|------------------------------2/--------|

Verse:
|------------------------|
|------4-----------------|
|-----4-4--1-2--1h2-2--4-|
|--2-----2---------------|

|------------------------|
|------4-----------------|
|-----4-4--1-2--1h2-2--1-|
|--2-----2---------------|

Chorus:
|----------------------------------------------------|
|-------------------------------------1--------------|
|----1h4---4--x--x------1h4--4--x--x-----1h4--4--x--x|
|-4-----------------4--------------------------------|

|---------------------------------------------4-3-1--------|
|---------------1-----------------------------------4-3-1--|
|-3----------x-----1h4--4--x--x--3----------x-------------4|
|----2h4--4-------------------------2h4--4-----------------|

Verse:
|------------------------|
|------4-----------------|
|-----4-4--1-2--1h2-2--4-|
|--2-----2---------------|

|------------------------|
|------4-----------------|
|-----4-4--1-2--1h2-2--4-|
|--2-----2---------------|

|------------------------|
|------4-----------------|
|-----4-4--1-2--1h2-2--4-|
|--2-----2---------------|

|------------------------|
|------4-----------------|
|-----4-4--1-2--1h2-2--4-|
|--2-----2---------------|

|------------------------|
|------4-----------------|
|-----4-4--1-2--1h2-2--4-|
|--2-----2---------------|

|------------------------|
|------4-----------------|
|-----4-4--1-2--1h2-1-4--|
|--2-----2---------------|  No I KNo  that im noooooo superman
            
Submit corrections

comments powered by Disqus
↑ Back to top | Lazlo Bane Bass for Superman. Lyrics for acoustic guitar and electric guitar. 1 Tablatures and chords are parodies/interpretations of the original songs. You may use it for private study, scholarship, research or language learning purposes only