» » »

Laura Marling, Salinas Tabs (ver.2)

Artists:  A B C D E F G H I J K L M N O P Q R S T U V W X Y Z # 

Salinas Tabs (ver.2)

Laura Marling Tabs
Rating:
0/5 (0 votes)
Salinas lessons Tabs too difficult? Try these video lessons and learn fast
                Laura Marling - Salinas

This is the tab from this live version of the song, the position of the capo might 
change in other versions

Open G tuning: DGDGBD (just as Don't Ask Me Why - they go together)
Capo 2

Intro:
--5------3------2------0------0-----0----|
--0------0------0------0------1-----0----|
--5------3------2------0------0-----0----|
--0------0------0------0------2-----0----|
--0------0------0------0------0-----0----|
--0------0------0------0------0-----0----|

I am from Salinas where the women go forever
And they never ever to stop to ask why
My mother was a saviour of six foot of bad behaviour
Long, blond curly hair down to her thigh
--5------3------2------0------0-----0----|
--0------0------0------0------1-----0----|
--5------3------2------0------0-----0----| x2
--0------0------0------0------2-----0----|
--0------0------0------0------0-----0----|
--0------0------0------0------0-----0----|

  Oh     my   mother         Oh      my  friands
--0------0------0------0------0------0---0---|
--0------0------0------0------0------0---0---|
--12-----8-----10------9------0------0---9---|
--0------0------0------0------0------0---0---|
--12-----8------9------8------0------7-->8---|(slide?)
--0------0------0------0------0------0---0---|

Ask the angles:
--0-------0------0---|
--0-------0------0---|
--0-------7----->9---|
--0-------0------0---|
--0-------0------8---|
--0-------0------0---|

Will I ever see heaven again?
--2-------1------5---|
--0-------0------0---|
--0-------0------5---|
--0-------0------0---|
--0-------0------0---|
--0-------0------0---|

Late into the evening, they would take each other screaming
Looking darkly to the back of her eye
The careless beast was bleating that the air behind was breathing
That they musn't ever look up to the sky
--5------3------2------0------0-----0----|
--0------0------0------0------1-----0----|
--5------3------2------0------0-----0----| x2
--0------0------0------0------2-----0----|
--0------0------0------0------0-----0----|
--0------0------0------0------0-----0----|

There are no answers
There  are   founds
Ask the angles:
--0-------0------0---|
--0-------0------0---|
--0-------7----->9---| x3
--0-------0------0---|
--0-------0------8---|
--0-------0------0---|

'Am I heaven-bound?'
--2-------1------5---|
--0-------0------0---|
--0-------0------5---|
--0-------0------0---|
--0-------0------0---|
--0-------0------0---|

Hmm put it down to me
I who speak awkwardly
Any word, if it is heard, is not intended to be
Not for him, not for her
Not for them, and not for me
--5------3------2------0---|
--0------0------0------0---|
--5------3------2------0---| x4
--0------0------0------0---|
--0------0------0------0---|
--0------0------0------0---|

Oh and that gun would turn before the sun starts to burn, understand?
--0------2------0---|
--0------1------0---|
--0------2------0---|
--0------0------0---|
--0------0------0---|
--0------0------0---|

ater that play these sections:
--0------0------0------0|--0------0------0------0|
--1------3------1------0|--1------3------1----->7|
--0------0------0------0|--0------0------0------0|
--2------3------2------0|--2------3------2----->7|
--0------0------0------0|--0------0------0------0|
--0------0------0------0|--0------0------0------0|

Hmm when the clouds roll in, we start paying for our sins
With a gun in my hand and my son at my shoulder
Believe I will run before that boy gets older
--5------3------2------0|
--0------0------0------0|
--5------3------2------0| x3
--0------0------0------0|
--0------0------0------0|
--0------0------0------0|

Oh and that gun would turn before the sun starts to burn, understand
Oh and that gun would turn before the sun starts to burn, understand
--0------2------0|--0------0------0------0|--0------0------0------0|
--0------1------0|--1------3------1------0|--1------3------1----->7|
--0------2------0|--0------0------0------0|--0------0------0------0|x2
--0------0------0|--2------3------2------0|--2------3------2----->7|
--0------0------0|--0------0------0------0|--0------0------0------0|
--0------0------0|--0------0------0------0|--0------0------0------0|

Interlude:
--5------3------2------0------0-----0----|
--0------0------0------0------1-----0----|
--5------3------2------0------0-----0----|
--0------0------0------0------2-----0----|
--0------0------0------0------0-----0----|
--0------0------0------0------0-----0----|

I am from Salinas where the women go forever
And they never ever stop to ask why
My mother, she's a saviour of six foot of bad behaviour
Long, blond curly hair down to her thigh
--5------3------2------0------0-----0----|
--0------0------0------0------1-----0----|
--5------3------2------0------0-----0----| x2
--0------0------0------0------2-----0----|
--0------0------0------0------0-----0----|
--0------0------0------0------0-----0----|

  Oh     my   mother         Oh      my  friands
--0------0------0------0------0------0---0---|
--0------0------0------0------0------0---0---|
--12-----8-----10------9------0------0---9---|
--0------0------0------0------0------0---0---|
--12-----8------9------8------0------7-->8---|(slide?)
--0------0------0------0------0------0---0---|

Ask the angles:
--0-------0------0---|
--0-------0------0---|
--0-------7----->9---|
--0-------0------0---|
--0-------0------8---|
--0-------0------0---|

'Will I ever see heaven again?'
'Will I ever see even again?'
'Will I ever see even again?'
--2-------1------5---|
--0-------0------0---|
--0-------0------5---|
--0-------0------0---| x3
--0-------0------0---|
--0-------0------0---|

Play the interlude again:
--5------3------2------0------0-----0----|
--0------0------0------0------1-----0----|
--5------3------2------0------0-----0----|
--0------0------0------0------2-----0----|
--0------0------0------0------0-----0----|
--0------0------0------0------0-----0----|

Punish them all, for they speak too much
Hate the world for what it did to us
--5------3------2------0|
--0------0------0------0|
--5------3------2------0|
--0------0------0------0|
--0------0------0------0|
--0------0------0------0|

'Will I ever see heaven again?'
--2-------1------5---|
--0-------0------0---|
--0-------0------5---|
--0-------0------0---|
--0-------0------0---|
--0-------0------0---|


Outro:
Hmmm..
--5------3------2------0------0-----0----|
--0------0------0------0------1-----0----|
--5------3------2------0------0-----0----|
--0------0------0------0------2-----0----|
--0------0------0------0------0-----0----|
--0------0------0------0------0-----0----|

I'm quite sure this is about 100% correct ...but let me know if something's wrong!
I am so happy about this wonderful new album and I just couldn't wait for someone to 
tell me how to play this song, I tried!
Cheers,
Marlene
            
Submit corrections

comments powered by Disqus
↑ Back to top | Laura Marling Tabs for Salinas. Lyrics for acoustic guitar and electric guitar. Tablatures and chords are parodies/interpretations of the original songs. You may use it for private study, scholarship, research or language learning purposes only