» » »

Circular Bass tabs (ver.2)

Artists:  A B C D E F G H I J K L M N O P Q R S T U V W X Y Z # 

Circular Bass tabs (ver.2)

Late Of The Pier
Rating:
5/5 (1 vote)

Tabs too difficult? Try these video lessons and learn fast.
                Standard Tuning


Intro/Verse

|-------------------------|
|-11--11------------------|
|---11--11-22-------------|
|------------22-44-2-4-2--|

Chorus

|------------------------   -----------------------|
|-11111------------------   -----------------------|
|------11111-22222-------   --44444444444----------|
|-----------------22222--   -----------------------|

"...I wish I was a fairy queen.."

|------------------------|------------------8--------------------|
|-----------------11111--|-----------------1-8-6-4-1-------------|
|------22222-11111-------|------22222-11111---------3-2----------|
|-22222------------------|-22222------------------------222222---|

"...Hands and knees"
|---------------------8--------------------------------------|
|----------------------8-6-4-1-------------------------------|
|-22222-----22222-------------3-2-11111-----111111-----------|
|------44444-----44444-----------------22222------22222------|
            
Tabs too difficult? Try these video lessons and learn fast.




comments powered by Disqus
↑ Back to top | Tablatures and chords are parodies/interpretations of the original songs. You may use it for private study, scholarship, research or language learning purposes only